  0
SECTION
  2
HEADER
  9
$ACADVER
  1
AC1015
  9
$ACADMAINTVER
 70
     6
  9
$DWGCODEPAGE
  3
ANSI_1254
  9
$INSBASE
 10
0.0
 20
0.0
 30
0.0
  9
$EXTMIN
 10
0.0
 20
0.0
 30
0.0
  9
$EXTMAX
 10
279.4
 20
215.9
 30
0.0
  9
$LIMMIN
 10
0.0
 20
0.0
  9
$LIMMAX
 10
279.4
 20
215.9
  9
$ORTHOMODE
 70
     0
  9
$REGENMODE
 70
     1
  9
$FILLMODE
 70
     1
  9
$QTEXTMODE
 70
     0
  9
$MIRRTEXT
 70
     1
  9
$LTSCALE
 40
1.0
  9
$ATTMODE
 70
     1
  9
$TEXTSIZE
 40
3.5
  9
$TRACEWID
 40
1.0
  9
$TEXTSTYLE
  7
Standard
  9
$CLAYER
  8
0
  9
$CELTYPE
  6
ByLayer
  9
$CECOLOR
 62
   256
  9
$CELTSCALE
 40
1.0
  9
$DISPSILH
 70
     0
  9
$DIMSCALE
 40
1.0
  9
$DIMASZ
 40
3.5
  9
$DIMEXO
 40
1.0
  9
$DIMDLI
 40
3.75
  9
$DIMRND
 40
0.0
  9
$DIMDLE
 40
0.0
  9
$DIMEXE
 40
1.0
  9
$DIMTP
 40
0.0
  9
$DIMTM
 40
0.0
  9
$DIMTXT
 40
3.5
  9
$DIMCEN
 40
2.5
  9
$DIMTSZ
 40
0.0
  9
$DIMTOL
 70
     0
  9
$DIMLIM
 70
     0
  9
$DIMTIH
 70
     1
  9
$DIMTOH
 70
     1
  9
$DIMSE1
 70
     0
  9
$DIMSE2
 70
     0
  9
$DIMTAD
 70
     1
  9
$DIMZIN
 70
     0
  9
$DIMBLK
  1

  9
$DIMASO
 70
     1
  9
$DIMSHO
 70
     1
  9
$DIMPOST
  1

  9
$DIMAPOST
  1

  9
$DIMALT
 70
     0
  9
$DIMALTD
 70
     3
  9
$DIMALTF
 40
0.0393700787
  9
$DIMLFAC
 40
1.0
  9
$DIMTOFL
 70
     1
  9
$DIMTVP
 40
0.0
  9
$DIMTIX
 70
     0
  9
$DIMSOXD
 70
     0
  9
$DIMSAH
 70
     0
  9
$DIMBLK1
  1

  9
$DIMBLK2
  1

  9
$DIMSTYLE
  2
ISO-25
  9
$DIMCLRD
 70
     0
  9
$DIMCLRE
 70
     0
  9
$DIMCLRT
 70
     0
  9
$DIMTFAC
 40
1.0
  9
$DIMGAP
 40
1.524
  9
$DIMJUST
 70
     0
  9
$DIMSD1
 70
     0
  9
$DIMSD2
 70
     0
  9
$DIMTOLJ
 70
     0
  9
$DIMTZIN
 70
     0
  9
$DIMALTZ
 70
     0
  9
$DIMALTTZ
 70
     0
  9
$DIMUPT
 70
     0
  9
$DIMDEC
 70
     2
  9
$DIMTDEC
 70
     2
  9
$DIMALTU
 70
     2
  9
$DIMALTTD
 70
     3
  9
$DIMTXSTY
  7
Standard
  9
$DIMAUNIT
 70
     0
  9
$DIMADEC
 70
     2
  9
$DIMALTRND
 40
0.0
  9
$DIMAZIN
 70
     0
  9
$DIMDSEP
 70
    44
  9
$DIMATFIT
 70
     3
  9
$DIMFRAC
 70
     0
  9
$DIMLDRBLK
  1

  9
$DIMLUNIT
 70
     2
  9
$DIMLWD
 70
    -2
  9
$DIMLWE
 70
    -2
  9
$DIMTMOVE
 70
     0
  9
$LUNITS
 70
     2
  9
$LUPREC
 70
     2
  9
$SKETCHINC
 40
1.0
  9
$FILLETRAD
 40
10.0
  9
$AUNITS
 70
     0
  9
$AUPREC
 70
     2
  9
$MENU
  1
.
  9
$ELEVATION
 40
0.0
  9
$PELEVATION
 40
0.0
  9
$THICKNESS
 40
0.0
  9
$LIMCHECK
 70
     0
  9
$CHAMFERA
 40
0.0
  9
$CHAMFERB
 40
0.0
  9
$CHAMFERC
 40
0.0
  9
$CHAMFERD
 40
0.0
  9
$SKPOLY
 70
     0
  9
$TDCREATE
 40
2459935.710169873
  9
$TDUCREATE
 40
2459935.585169873
  9
$TDUPDATE
 40
2459935.710170058
  9
$TDUUPDATE
 40
2459935.585170058
  9
$TDINDWG
 40
0.0000000116
  9
$TDUSRTIMER
 40
0.0000000116
  9
$USRTIMER
 70
     1
  9
$ANGBASE
 50
0.0
  9
$ANGDIR
 70
     0
  9
$PDMODE
 70
     0
  9
$PDSIZE
 40
-1.0
  9
$PLINEWID
 40
0.0
  9
$SPLFRAME
 70
     0
  9
$SPLINETYPE
 70
     6
  9
$SPLINESEGS
 70
     8
  9
$HANDSEED
  5
10F
  9
$SURFTAB1
 70
     6
  9
$SURFTAB2
 70
     6
  9
$SURFTYPE
 70
     6
  9
$SURFU
 70
     6
  9
$SURFV
 70
     6
  9
$UCSBASE
  2

  9
$UCSNAME
  2

  9
$UCSORG
 10
0.0
 20
0.0
 30
0.0
  9
$UCSXDIR
 10
1.0
 20
0.0
 30
0.0
  9
$UCSYDIR
 10
0.0
 20
1.0
 30
0.0
  9
$UCSORTHOREF
  2

  9
$UCSORTHOVIEW
 70
     0
  9
$UCSORGTOP
 10
0.0
 20
0.0
 30
0.0
  9
$UCSORGBOTTOM
 10
0.0
 20
0.0
 30
0.0
  9
$UCSORGLEFT
 10
0.0
 20
0.0
 30
0.0
  9
$UCSORGRIGHT
 10
0.0
 20
0.0
 30
0.0
  9
$UCSORGFRONT
 10
0.0
 20
0.0
 30
0.0
  9
$UCSORGBACK
 10
0.0
 20
0.0
 30
0.0
  9
$PUCSBASE
  2

  9
$PUCSNAME
  2

  9
$PUCSORG
 10
0.0
 20
0.0
 30
0.0
  9
$PUCSXDIR
 10
1.0
 20
0.0
 30
0.0
  9
$PUCSYDIR
 10
0.0
 20
1.0
 30
0.0
  9
$PUCSORTHOREF
  2

  9
$PUCSORTHOVIEW
 70
     0
  9
$PUCSORGTOP
 10
0.0
 20
0.0
 30
0.0
  9
$PUCSORGBOTTOM
 10
0.0
 20
0.0
 30
0.0
  9
$PUCSORGLEFT
 10
0.0
 20
0.0
 30
0.0
  9
$PUCSORGRIGHT
 10
0.0
 20
0.0
 30
0.0
  9
$PUCSORGFRONT
 10
0.0
 20
0.0
 30
0.0
  9
$PUCSORGBACK
 10
0.0
 20
0.0
 30
0.0
  9
$USERI1
 70
     0
  9
$USERI2
 70
     0
  9
$USERI3
 70
     0
  9
$USERI4
 70
     0
  9
$USERI5
 70
     0
  9
$USERR1
 40
0.0
  9
$USERR2
 40
0.0
  9
$USERR3
 40
0.0
  9
$USERR4
 40
0.0
  9
$USERR5
 40
0.0
  9
$WORLDVIEW
 70
     1
  9
$SHADEDGE
 70
     3
  9
$SHADEDIF
 70
    70
  9
$TILEMODE
 70
     1
  9
$MAXACTVP
 70
    64
  9
$PINSBASE
 10
0.0
 20
0.0
 30
0.0
  9
$PLIMCHECK
 70
     0
  9
$PEXTMIN
 10
1.0000000000E+20
 20
1.0000000000E+20
 30
1.0000000000E+20
  9
$PEXTMAX
 10
-1.0000000000E+20
 20
-1.0000000000E+20
 30
-1.0000000000E+20
  9
$PLIMMIN
 10
0.0
 20
0.0
  9
$PLIMMAX
 10
420.0
 20
297.0
  9
$UNITMODE
 70
     0
  9
$VISRETAIN
 70
     1
  9
$PLINEGEN
 70
     0
  9
$PSLTSCALE
 70
     1
  9
$TREEDEPTH
 70
  3020
  9
$CMLSTYLE
  2
Standard
  9
$CMLJUST
 70
     0
  9
$CMLSCALE
 40
20.0
  9
$PROXYGRAPHICS
 70
     1
  9
$MEASUREMENT
 70
     1
  9
$CELWEIGHT
370
    -1
  9
$ENDCAPS
280
     0
  9
$JOINSTYLE
280
     0
  9
$LWDISPLAY
290
     1
  9
$INSUNITS
 70
     4
  9
$HYPERLINKBASE
  1

  9
$STYLESHEET
  1

  9
$XEDIT
290
     1
  9
$CEPSNTYPE
380
     0
  9
$PSTYLEMODE
290
     1
  9
$FINGERPRINTGUID
  2
{d7fc0c11-6214-4d35-9aad-cb1565a353df}
  9
$VERSIONGUID
  2
{FAEB1C32-E019-11D5-929B-00C0DF256EC4}
  9
$EXTNAMES
290
     1
  9
$PSVPSCALE
 40
0.0
  9
$OLESTARTUP
290
     0
  0
ENDSEC
  0
SECTION
  2
CLASSES
  0
CLASS
  1
ACDBDICTIONARYWDFLT
  2
AcDbDictionaryWithDefault
  3
ObjectDBX Classes
 90
        0
280
     0
281
     0
  0
CLASS
  1
VISUALSTYLE
  2
AcDbVisualStyle
  3
ObjectDBX Classes
 90
     4095
280
     0
281
     0
  0
CLASS
  1
MATERIAL
  2
AcDbMaterial
  3
ObjectDBX Classes
 90
     1153
280
     0
281
     0
  0
CLASS
  1
SCALE
  2
AcDbScale
  3
ObjectDBX Classes
 90
     1153
280
     0
281
     0
  0
CLASS
  1
TABLESTYLE
  2
AcDbTableStyle
  3
ObjectDBX Classes
 90
     4095
280
     0
281
     0
  0
CLASS
  1
MLEADERSTYLE
  2
AcDbMLeaderStyle
  3
ACDB_MLEADERSTYLE_CLASS
 90
     4095
280
     0
281
     0
  0
CLASS
  1
SUN
  2
AcDbSun
  3
SCENEOE
 90
     1153
280
     0
281
     0
  0
CLASS
  1
ACDBPLACEHOLDER
  2
AcDbPlaceHolder
  3
ObjectDBX Classes
 90
        0
280
     0
281
     0
  0
CLASS
  1
LAYOUT
  2
AcDbLayout
  3
ObjectDBX Classes
 90
        0
280
     0
281
     0
  0
ENDSEC
  0
SECTION
  2
TABLES
  0
TABLE
  2
VPORT
  5
8
330
0
100
AcDbSymbolTable
 70
     1
  0
VPORT
  5
29
330
8
100
AcDbSymbolTableRecord
100
AcDbViewportTableRecord
  2
*Active
 70
     0
 10
0.0
 20
0.0
 11
1.0
 21
1.0
 12
139.7
 22
107.95
 13
0.0
 23
0.0
 14
10.0
 24
10.0
 15
10.0
 25
10.0
 16
0.0
 26
0.0
 36
1.0
 17
0.0
 27
0.0
 37
0.0
 40
215.9
 41
1.2941176471
 42
50.0
 43
0.0
 44
0.0
 50
0.0
 51
0.0
 71
     0
 72
  2000
 73
     1
 74
     3
 75
     0
 76
     0
 77
     0
 78
     0
281
     0
 65
     1
110
0.0
120
0.0
130
0.0
111
1.0
121
0.0
131
0.0
112
0.0
122
1.0
132
0.0
 79
     0
146
0.0
  0
ENDTAB
  0
TABLE
  2
LTYPE
  5
5
330
0
100
AcDbSymbolTable
 70
     6
  0
LTYPE
  5
14
330
5
100
AcDbSymbolTableRecord
100
AcDbLinetypeTableRecord
  2
ByBlock
 70
     0
  3

 72
    65
 73
     0
 40
0.0
  0
LTYPE
  5
15
330
5
100
AcDbSymbolTableRecord
100
AcDbLinetypeTableRecord
  2
ByLayer
 70
     0
  3

 72
    65
 73
     0
 40
0.0
  0
LTYPE
  5
16
330
5
100
AcDbSymbolTableRecord
100
AcDbLinetypeTableRecord
  2
Continuous
 70
     0
  3
Solid line
 72
    65
 73
     0
 40
0.0
  0
LTYPE
  5
6E
330
5
100
AcDbSymbolTableRecord
100
AcDbLinetypeTableRecord
  2
HIDDEN
 70
     0
  3
Hidden __ __ __ __ __ __ __ __ __ __ __ __ __ __
 72
    65
 73
     2
 40
1.905
 49
1.27
 74
     0
 49
-0.635
 74
     0
  0
LTYPE
  5
6F
330
5
100
AcDbSymbolTableRecord
100
AcDbLinetypeTableRecord
  2
PHANTOM
 70
     0
  3
Phantom ______  __  __  ______  __  __  ______
 72
    65
 73
     6
 40
12.7
 49
6.35
 74
     0
 49
-1.27
 74
     0
 49
1.27
 74
     0
 49
-1.27
 74
     0
 49
1.27
 74
     0
 49
-1.27
 74
     0
  0
LTYPE
  5
70
330
5
100
AcDbSymbolTableRecord
100
AcDbLinetypeTableRecord
  2
CENTER
 70
     0
  3
Center ____ _ ____ _ ____ _ ____ _ ____ _ ____
 72
    65
 73
     4
 40
10.16
 49
6.35
 74
     0
 49
-1.27
 74
     0
 49
1.27
 74
     0
 49
-1.27
 74
     0
  0
LTYPE
  5
71
330
5
100
AcDbSymbolTableRecord
100
AcDbLinetypeTableRecord
  2
CENTERX2
 70
     0
  3
Center (2x) ________  __  ________  __  _____
 72
    65
 73
     4
 40
20.32
 49
12.7
 74
     0
 49
-2.54
 74
     0
 49
2.54
 74
     0
 49
-2.54
 74
     0
  0
LTYPE
  5
72
330
5
100
AcDbSymbolTableRecord
100
AcDbLinetypeTableRecord
  2
DOT2
 70
     0
  3
Dot (.5x) ........................................
 72
    65
 73
     2
 40
0.635
 49
0.0
 74
     0
 49
-0.635
 74
     0
  0
ENDTAB
  0
TABLE
  2
LAYER
  5
2
330
0
100
AcDbSymbolTable
 70
    17
  0
LAYER
  5
10
330
2
100
AcDbSymbolTableRecord
100
AcDbLayerTableRecord
  2
0
 70
     0
 62
     7
  6
Continuous
370
    -3
390
F
  0
LAYER
  5
73
330
2
100
AcDbSymbolTableRecord
100
AcDbLayerTableRecord
  2
FORMAT
 70
     0
 62
     7
  6
Continuous
370
    -3
390
F
  0
LAYER
  5
74
330
2
100
AcDbSymbolTableRecord
100
AcDbLayerTableRecord
  2
YARDIMCI_GEOMETRI
 70
     0
 62
    -6
  6
Continuous
290
     0
370
    -3
390
F
  0
LAYER
  5
75
330
2
100
AcDbSymbolTableRecord
100
AcDbLayerTableRecord
  2
SAYFA_CERCEVESI
 70
     0
 62
     7
  6
Continuous
370
    25
390
F
  0
LAYER
  5
76
330
2
100
AcDbSymbolTableRecord
100
AcDbLayerTableRecord
  2
ANTET
 70
     0
 62
     7
  6
Continuous
370
    -3
390
F
  0
LAYER
  5
77
330
2
100
AcDbSymbolTableRecord
100
AcDbLayerTableRecord
  2
OLCU
 70
     0
 62
   150
  6
Continuous
370
    -3
390
F
  0
LAYER
  5
78
330
2
100
AcDbSymbolTableRecord
100
AcDbLayerTableRecord
  2
METIN
 70
     0
 62
    96
  6
Continuous
370
    -3
390
F
  0
LAYER
  5
79
330
2
100
AcDbSymbolTableRecord
100
AcDbLayerTableRecord
  2
BALON
 70
     0
 62
     5
  6
Continuous
370
    -3
390
F
  0
LAYER
  5
7A
330
2
100
AcDbSymbolTableRecord
100
AcDbLayerTableRecord
  2
VURGU
 70
     0
 62
     7
  6
Continuous
370
    -3
390
F
  0
LAYER
  5
7B
330
2
100
AcDbSymbolTableRecord
100
AcDbLayerTableRecord
  2
SILIK
 70
     0
 62
     7
  6
Continuous
370
    -3
390
F
  0
LAYER
  5
7C
330
2
100
AcDbSymbolTableRecord
100
AcDbLayerTableRecord
  2
MODEL
 70
     0
 62
     7
  6
Continuous
370
    -3
390
F
  0
LAYER
  5
7D
330
2
100
AcDbSymbolTableRecord
100
AcDbLayerTableRecord
  2
DETAYLANDıRMA
 70
     0
 62
   190
  6
Continuous
370
    -3
390
F
  0
LAYER
  5
7E
330
2
100
AcDbSymbolTableRecord
100
AcDbLayerTableRecord
  2
TOLERANS
 70
     0
 62
   230
  6
Continuous
370
    -3
390
F
  0
LAYER
  5
7F
330
2
100
AcDbSymbolTableRecord
100
AcDbLayerTableRecord
  2
MERKEZ_CIZGILERI
 70
     0
 62
    30
  6
Continuous
370
    -3
390
F
  0
LAYER
  5
80
330
2
100
AcDbSymbolTableRecord
100
AcDbLayerTableRecord
  2
KESIT-DETAY_CIZGILERI
 70
     0
 62
     7
  6
Continuous
370
    -3
390
F
  0
LAYER
  5
81
330
2
100
AcDbSymbolTableRecord
100
AcDbLayerTableRecord
  2
\U+041E\U+0421\U+0415\U+0412\U+042B\U+0415
 70
     0
 62
     7
  6
Continuous
370
    -3
390
F
  0
LAYER
  5
82
330
2
100
AcDbSymbolTableRecord
100
AcDbLayerTableRecord
  2
\U+0412\U+041E\U+0414\U+042F\U+041D\U+042B\U+0415_\U+0417\U+041D\U+0410\U+041A\U+0418
 70
     0
 62
    11
  6
Continuous
370
    -3
390
F
  0
ENDTAB
  0
TABLE
  2
STYLE
  5
3
330
0
100
AcDbSymbolTable
 70
     1
  0
STYLE
  5
11
330
3
100
AcDbSymbolTableRecord
100
AcDbTextStyleTableRecord
  2
Standard
 70
     0
 40
0.0
 41
1.0
 50
0.0
 71
     0
 42
3.5
  3
txt
  4

  0
ENDTAB
  0
TABLE
  2
VIEW
  5
6
330
0
100
AcDbSymbolTable
 70
     0
  0
ENDTAB
  0
TABLE
  2
UCS
  5
7
330
0
100
AcDbSymbolTable
 70
     0
  0
ENDTAB
  0
TABLE
  2
APPID
  5
9
330
0
100
AcDbSymbolTable
 70
     1
  0
APPID
  5
12
330
9
100
AcDbSymbolTableRecord
100
AcDbRegAppTableRecord
  2
ACAD
 70
     0
  0
ENDTAB
  0
TABLE
  2
DIMSTYLE
  5
A
330
0
100
AcDbSymbolTable
 70
     1
100
AcDbDimStyleTable
  0
DIMSTYLE
105
27
330
A
100
AcDbSymbolTableRecord
100
AcDbDimStyleTableRecord
  2
ISO-25
 70
     0
 41
2.5
 42
0.625
 43
3.75
 44
1.25
 73
     0
 74
     0
 77
     1
 78
     8
140
2.5
141
2.5
143
0.0393700787
147
0.625
171
     3
172
     1
178
     0
271
     2
272
     2
274
     3
278
    44
283
     0
284
     8
340
11
  0
ENDTAB
  0
TABLE
  2
BLOCK_RECORD
  5
1
330
0
100
AcDbSymbolTable
 70
     4
  0
BLOCK_RECORD
  5
1F
330
1
100
AcDbSymbolTableRecord
100
AcDbBlockTableRecord
  2
*Model_Space
340
22
  0
BLOCK_RECORD
  5
1B
330
1
100
AcDbSymbolTableRecord
100
AcDbBlockTableRecord
  2
*Paper_Space
340
1E
  0
BLOCK_RECORD
  5
23
330
1
100
AcDbSymbolTableRecord
100
AcDbBlockTableRecord
  2
*Paper_Space0
340
26
  0
BLOCK_RECORD
  5
8C
330
1
100
AcDbSymbolTableRecord
100
AcDbBlockTableRecord
  2
SW_CENTERMARKSYMBOL_0
340
0
102
{BLKREFS
331
97
102
}
  0
BLOCK_RECORD
  5
DE
330
1
100
AcDbSymbolTableRecord
100
AcDbBlockTableRecord
  2
SW_CENTERMARKSYMBOL_1
340
0
102
{BLKREFS
331
E9
102
}
  0
BLOCK_RECORD
  5
EA
330
1
100
AcDbSymbolTableRecord
100
AcDbBlockTableRecord
  2
SW_CENTERMARKSYMBOL_2
340
0
102
{BLKREFS
331
F5
102
}
  0
ENDTAB
  0
ENDSEC
  0
SECTION
  2
BLOCKS
  0
BLOCK
  5
20
330
1F
100
AcDbEntity
  8
0
100
AcDbBlockBegin
  2
*Model_Space
 70
     0
 10
0.0
 20
0.0
 30
0.0
  3
*Model_Space
  1

  0
ENDBLK
  5
21
330
1F
100
AcDbEntity
  8
0
100
AcDbBlockEnd
  0
BLOCK
  5
1C
330
1B
100
AcDbEntity
 67
     1
  8
0
100
AcDbBlockBegin
  2
*Paper_Space
 70
     0
 10
0.0
 20
0.0
 30
0.0
  3
*Paper_Space
  1

  0
ENDBLK
  5
1D
330
1B
100
AcDbEntity
 67
     1
  8
0
100
AcDbBlockEnd
  0
BLOCK
  5
24
330
23
100
AcDbEntity
  8
0
100
AcDbBlockBegin
  2
*Paper_Space0
 70
     0
 10
0.0
 20
0.0
 30
0.0
  3
*Paper_Space0
  1

  0
ENDBLK
  5
25
330
23
100
AcDbEntity
  8
0
100
AcDbBlockEnd
  0
BLOCK
  5
8D
330
8C
100
AcDbEntity
  8
0
100
AcDbBlockBegin
  2
SW_CENTERMARKSYMBOL_0
 70
     0
 10
0.0
 20
0.0
 30
0.0
  3
SW_CENTERMARKSYMBOL_0
  1

  0
LINE
  5
8F
330
8C
100
AcDbEntity
  8
FORMAT
 62
     0
100
AcDbLine
 10
0.0
 20
0.0
 30
0.0
 11
0.0
 21
2.5
 31
0.0
  0
LINE
  5
90
330
8C
100
AcDbEntity
  8
FORMAT
 62
     0
100
AcDbLine
 10
0.0
 20
0.0
 30
0.0
 11
-2.5
 21
0.0
 31
0.0
  0
LINE
  5
91
330
8C
100
AcDbEntity
  8
FORMAT
 62
     0
100
AcDbLine
 10
0.0
 20
0.0
 30
0.0
 11
0.0
 21
-2.5
 31
0.0
  0
LINE
  5
92
330
8C
100
AcDbEntity
  8
FORMAT
 62
     0
100
AcDbLine
 10
0.0
 20
0.0
 30
0.0
 11
2.5
 21
0.0
 31
0.0
  0
LINE
  5
93
330
8C
100
AcDbEntity
  8
FORMAT
 62
     0
100
AcDbLine
 10
0.0
 20
5.0
 30
0.0
 11
0.0
 21
47.8
 31
0.0
  0
LINE
  5
94
330
8C
100
AcDbEntity
  8
FORMAT
 62
     0
100
AcDbLine
 10
-5.0
 20
0.0
 30
0.0
 11
-47.8
 21
0.0
 31
0.0
  0
LINE
  5
95
330
8C
100
AcDbEntity
  8
FORMAT
 62
     0
100
AcDbLine
 10
0.0
 20
-5.0
 30
0.0
 11
0.0
 21
-47.8
 31
0.0
  0
LINE
  5
96
330
8C
100
AcDbEntity
  8
FORMAT
 62
     0
100
AcDbLine
 10
5.0
 20
0.0
 30
0.0
 11
47.8
 21
0.0
 31
0.0
  0
ENDBLK
  5
8E
330
8C
100
AcDbEntity
  8
0
100
AcDbBlockEnd
  0
BLOCK
  5
DF
330
DE
100
AcDbEntity
  8
0
100
AcDbBlockBegin
  2
SW_CENTERMARKSYMBOL_1
 70
     0
 10
0.0
 20
0.0
 30
0.0
  3
SW_CENTERMARKSYMBOL_1
  1

  0
LINE
  5
E1
330
DE
100
AcDbEntity
  8
FORMAT
 62
     0
100
AcDbLine
 10
0.0
 20
0.0
 30
0.0
 11
0.0
 21
2.5
 31
0.0
  0
LINE
  5
E2
330
DE
100
AcDbEntity
  8
FORMAT
 62
     0
100
AcDbLine
 10
0.0
 20
0.0
 30
0.0
 11
-2.5
 21
0.0
 31
0.0
  0
LINE
  5
E3
330
DE
100
AcDbEntity
  8
FORMAT
 62
     0
100
AcDbLine
 10
0.0
 20
0.0
 30
0.0
 11
0.0
 21
-2.5
 31
0.0
  0
LINE
  5
E4
330
DE
100
AcDbEntity
  8
FORMAT
 62
     0
100
AcDbLine
 10
0.0
 20
0.0
 30
0.0
 11
2.5
 21
0.0
 31
0.0
  0
LINE
  5
E5
330
DE
100
AcDbEntity
  8
FORMAT
 62
     0
100
AcDbLine
 10
0.0
 20
5.0
 30
0.0
 11
0.0
 21
9.5
 31
0.0
  0
LINE
  5
E6
330
DE
100
AcDbEntity
  8
FORMAT
 62
     0
100
AcDbLine
 10
-5.0
 20
0.0
 30
0.0
 11
-9.5
 21
0.0
 31
0.0
  0
LINE
  5
E7
330
DE
100
AcDbEntity
  8
FORMAT
 62
     0
100
AcDbLine
 10
0.0
 20
-5.0
 30
0.0
 11
0.0
 21
-9.5
 31
0.0
  0
LINE
  5
E8
330
DE
100
AcDbEntity
  8
FORMAT
 62
     0
100
AcDbLine
 10
5.0
 20
0.0
 30
0.0
 11
9.5
 21
0.0
 31
0.0
  0
ENDBLK
  5
E0
330
DE
100
AcDbEntity
  8
0
100
AcDbBlockEnd
  0
BLOCK
  5
EB
330
EA
100
AcDbEntity
  8
0
100
AcDbBlockBegin
  2
SW_CENTERMARKSYMBOL_2
 70
     0
 10
0.0
 20
0.0
 30
0.0
  3
SW_CENTERMARKSYMBOL_2
  1

  0
LINE
  5
ED
330
EA
100
AcDbEntity
  8
FORMAT
 62
     0
100
AcDbLine
 10
0.0
 20
0.0
 30
0.0
 11
0.0
 21
2.5
 31
0.0
  0
LINE
  5
EE
330
EA
100
AcDbEntity
  8
FORMAT
 62
     0
100
AcDbLine
 10
0.0
 20
0.0
 30
0.0
 11
-2.5
 21
0.0
 31
0.0
  0
LINE
  5
EF
330
EA
100
AcDbEntity
  8
FORMAT
 62
     0
100
AcDbLine
 10
0.0
 20
0.0
 30
0.0
 11
0.0
 21
-2.5
 31
0.0
  0
LINE
  5
F0
330
EA
100
AcDbEntity
  8
FORMAT
 62
     0
100
AcDbLine
 10
0.0
 20
0.0
 30
0.0
 11
2.5
 21
0.0
 31
0.0
  0
LINE
  5
F1
330
EA
100
AcDbEntity
  8
FORMAT
 62
     0
100
AcDbLine
 10
0.0
 20
5.0
 30
0.0
 11
0.0
 21
9.5
 31
0.0
  0
LINE
  5
F2
330
EA
100
AcDbEntity
  8
FORMAT
 62
     0
100
AcDbLine
 10
-5.0
 20
0.0
 30
0.0
 11
-9.5
 21
0.0
 31
0.0
  0
LINE
  5
F3
330
EA
100
AcDbEntity
  8
FORMAT
 62
     0
100
AcDbLine
 10
0.0
 20
-5.0
 30
0.0
 11
0.0
 21
-9.5
 31
0.0
  0
LINE
  5
F4
330
EA
100
AcDbEntity
  8
FORMAT
 62
     0
100
AcDbLine
 10
5.0
 20
0.0
 30
0.0
 11
9.5
 21
0.0
 31
0.0
  0
ENDBLK
  5
EC
330
EA
100
AcDbEntity
  8
0
100
AcDbBlockEnd
  0
ENDSEC
  0
SECTION
  2
ENTITIES
  0
LINE
  5
83
330
1F
100
AcDbEntity
  8
0
  6
Continuous
 62
     7
370
    25
100
AcDbLine
 10
147.4922841106
 20
153.2993312613
 30
0.0
 11
147.4922841106
 21
165.9010371205
 31
0.0
  0
LINE
  5
84
330
1F
100
AcDbEntity
  8
0
  6
Continuous
 62
     7
370
    25
100
AcDbLine
 10
133.4922841106
 20
165.9010371205
 30
0.0
 11
133.4922841106
 21
153.2967798744
 31
0.0
  0
CIRCLE
  5
85
330
1F
100
AcDbEntity
  8
0
  6
Continuous
 62
     7
370
    25
100
AcDbCircle
 10
140.4922841106
 20
96.6010371205
 30
0.0
 40
56.69999999999999
  0
ARC
  5
86
330
1F
100
AcDbEntity
  8
0
  6
Continuous
 62
     7
370
    25
100
AcDbCircle
 10
140.4922841106
 20
96.6010371205
 30
0.0
 40
57.70000000000009
100
AcDbArc
 50
96.9681255821
 51
180.0
  0
ARC
  5
87
330
1F
100
AcDbEntity
  8
0
  6
Continuous
 62
     7
370
    25
100
AcDbCircle
 10
140.4922841106
 20
96.6010371205
 30
0.0
 40
57.7000000000001
100
AcDbArc
 50
180.0
 51
83.0318744179
  0
SPLINE
  5
88
330
1F
100
AcDbEntity
  8
0
  6
Continuous
 62
     7
370
    25
100
AcDbSpline
210
0.0
220
0.0
230
1.0
 70
     8
 71
     3
 72
    22
 73
    18
 74
     0
 42
0.00000001
 43
0.00000001
 40
0.0
 40
0.0
 40
0.0
 40
0.0
 40
0.071497120133385
 40
0.1429938497767066
 40
0.2144983915029195
 40
0.2860017068443965
 40
0.3573385898656882
 40
0.428675778614544
 40
0.4998833311454208
 40
0.5710921263361577
 40
0.6424999592344751
 40
0.7139074958778351
 40
0.7854622619638717
 40
0.8570151771061393
 40
0.9283149200445243
 40
0.9996143638221741
 40
1.0
 40
1.0
 40
1.0
 40
1.0
 10
145.4594903884186
 20
153.3493199312914
 30
0.0
 10
145.1683643251477
 20
153.3642833191176
 30
0.0
 10
144.5861137886256
 20
153.3942100130456
 30
0.0
 10
143.5603196430439
 20
153.437820964403
 30
0.0
 10
142.4556324158622
 20
153.4715394576828
 30
0.0
 10
141.2941021983282
 20
153.4919205716812
 30
0.0
 10
140.1108784773298
 20
153.4946342288523
 30
0.0
 10
138.9397301657191
 20
153.480851292621
 30
0.0
 10
137.8143885706117
 20
153.451152865312
 30
0.0
 10
136.7628827957106
 20
153.4109377048125
 30
0.0
 10
135.8181332050365
 20
153.3652687886724
 30
0.0
 10
135.0010134325722
 20
153.3212872650568
 30
0.0
 10
134.3439225438437
 20
153.2867398684986
 30
0.0
 10
133.8515213670212
 20
153.2664286452502
 30
0.0
 10
133.5761297618602
 20
153.2702365541136
 30
0.0
 10
133.4596448066305
 20
153.2807048462722
 30
0.0
 10
133.4926393688131
 20
153.2966938600708
 30
0.0
 10
133.4928168659555
 20
153.2967798743736
 30
0.0
  0
SPLINE
  5
89
330
1F
100
AcDbEntity
  8
0
  6
Continuous
 62
     7
370
    25
100
AcDbSpline
210
0.0
220
0.0
230
1.0
 70
     8
 71
     3
 72
    12
 73
     8
 74
     0
 42
0.00000001
 43
0.00000001
 40
0.0
 40
0.0
 40
0.0
 40
0.0
 40
0.0680340902798309
 40
0.2837929410989206
 40
0.4982437201566071
 40
0.7126994785429636
 40
1.0
 40
1.0
 40
1.0
 40
1.0
 10
147.4703303639081
 20
153.299331261256
 30
0.0
 10
147.4762753074864
 20
153.294824414539
 30
0.0
 10
147.5010736551357
 20
153.2760248497968
 30
0.0
 10
147.345891169236
 20
153.2662749696484
 30
0.0
 10
146.9974526418716
 20
153.2710636937491
 30
0.0
 10
146.4085750003989
 20
153.2981393401507
 30
0.0
 10
145.8050580376415
 20
153.3306847576272
 30
0.0
 10
145.4594903884186
 20
153.3493199312914
 30
0.0
  0
CIRCLE
  5
8A
330
1F
100
AcDbEntity
  8
0
  6
Continuous
 62
     7
370
    25
100
AcDbCircle
 10
140.4922841106
 20
96.6010371205
 30
0.0
 40
45.3
  0
LINE
  5
8B
330
1F
100
AcDbEntity
  8
0
  6
Continuous
 62
     7
370
    25
100
AcDbLine
 10
147.4922841106
 20
165.9010371205
 30
0.0
 11
133.4922841106
 21
165.9010371205
 31
0.0
  0
INSERT
  5
97
330
1F
100
AcDbEntity
  8
FORMAT
 62
     7
100
AcDbBlockReference
  2
SW_CENTERMARKSYMBOL_0
 10
140.4922841106
 20
96.6010371205
 30
0.0
  0
ARC
  5
98
330
1F
100
AcDbEntity
  8
0
  6
Continuous
 62
     7
370
    25
100
AcDbCircle
 10
279.4828286931
 20
-1071.3239628795
 30
0.0
 40
1225.625
100
AcDbArc
 50
92.0795964694
 51
92.3146661363
  0
ARC
  5
99
330
1F
100
AcDbEntity
  8
0
  6
Continuous
 62
     7
370
    25
100
AcDbCircle
 10
279.4828286931
 20
-1071.3239628795
 30
0.0
 40
1225.625000000001
100
AcDbArc
 50
90.0
 51
91.426830716
  0
ARC
  5
9A
330
1F
100
AcDbEntity
  8
0
  6
Continuous
 62
     7
370
    25
100
AcDbCircle
 10
279.4828286931
 20
1264.5260371205
 30
0.0
 40
1225.625
100
AcDbArc
 50
267.6853338637
 51
270.0
  0
LINE
  5
9B
330
1F
100
AcDbEntity
  8
0
  6
Continuous
 62
     7
370
    25
100
AcDbLine
 10
279.4828286931
 20
38.9010371205
 30
0.0
 11
304.4828286931
 21
38.9010371205
 31
0.0
  0
LINE
  5
9C
330
1F
100
AcDbEntity
  8
0
  6
Continuous
 62
     7
370
    25
100
AcDbLine
 10
304.4828286931
 20
154.3010371205
 30
0.0
 11
279.4828286931
 21
154.3010371205
 31
0.0
  0
ARC
  5
9D
330
1F
100
AcDbEntity
  8
0
  6
Continuous
 62
     7
370
    25
100
AcDbCircle
 10
304.4828286931
 20
-1071.3239628795
 30
0.0
 40
1225.625000000001
100
AcDbArc
 50
88.5729486846
 51
90.0
  0
ARC
  5
9E
330
1F
100
AcDbEntity
  8
0
  6
Continuous
 62
     7
370
    25
100
AcDbCircle
 10
304.4828286931
 20
-1071.3239628795
 30
0.0
 40
1225.625000000001
100
AcDbArc
 50
87.6853338637
 51
87.9202121808
  0
ARC
  5
9F
330
1F
100
AcDbEntity
  8
0
  6
Continuous
 62
     7
370
    25
100
AcDbCircle
 10
304.4828286931
 20
1264.5260371205
 30
0.0
 40
1225.625
100
AcDbArc
 50
270.0
 51
272.3146661363
  0
LINE
  5
A0
330
1F
100
AcDbEntity
  8
0
  6
Continuous
 62
     7
370
    25
100
AcDbLine
 10
248.9828286931
 20
153.9187749391
 30
0.0
 11
248.9828286931
 21
165.9010371205
 31
0.0
  0
LINE
  5
A1
330
1F
100
AcDbEntity
  8
0
  6
Continuous
 62
     7
370
    25
100
AcDbLine
 10
234.9828286931
 20
165.9010371205
 30
0.0
 11
234.9828286931
 21
153.4907648749
 31
0.0
  0
LINE
  5
A2
330
1F
100
AcDbEntity
  8
0
  6
Continuous
 62
     7
370
    25
100
AcDbLine
 10
348.9828286931
 20
153.4911297619
 30
0.0
 11
348.9828286931
 21
165.9010371205
 31
0.0
  0
LINE
  5
A3
330
1F
100
AcDbEntity
  8
0
  6
Continuous
 62
     7
370
    25
100
AcDbLine
 10
334.9828286931
 20
165.9010371205
 30
0.0
 11
334.9828286931
 21
153.9180915086
 31
0.0
  0
LINE
  5
A4
330
1F
100
AcDbEntity
  8
0
  6
Continuous
 62
     7
370
    25
100
AcDbLine
 10
229.9828286931
 20
96.6010371205
 30
0.0
 11
229.9828286931
 21
153.3010371205
 31
0.0
  0
LINE
  5
A5
330
1F
100
AcDbEntity
  8
0
  6
Continuous
 62
     7
370
    25
100
AcDbLine
 10
229.9828286931
 20
39.9010371205
 30
0.0
 11
229.9828286931
 21
96.6010371205
 31
0.0
  0
SPLINE
  5
A6
330
1F
100
AcDbEntity
  8
0
  6
Continuous
 62
     7
370
    25
100
AcDbSpline
210
0.0
220
0.0
230
1.0
 70
     8
 71
     3
 72
    27
 73
    23
 74
     0
 42
0.00000001
 43
0.00000001
 40
0.0
 40
0.0
 40
0.0
 40
0.0
 40
0.0137684257957226
 40
0.0678587987328881
 40
0.1201942881958687
 40
0.1740295719931685
 40
0.2267023767548507
 40
0.2808764837787643
 40
0.334000750762763
 40
0.3886642474414545
 40
0.4417846706681443
 40
0.4964676786038151
 40
0.5492021506091866
 40
0.6034785488818437
 40
0.6560138136174094
 40
0.7100624328602747
 40
0.7627868659186228
 40
0.8170280706618606
 40
0.8699554032391839
 40
0.924421777693666
 40
0.9772651909181812
 40
1.0
 40
1.0
 40
1.0
 40
1.0
 10
248.9643605339548
 20
153.9187690653072
 30
0.0
 10
248.9698541983704
 20
153.9195748286108
 30
0.0
 10
248.9969301672146
 20
153.9235460981415
 30
0.0
 10
248.8495173331363
 20
153.9018556421331
 30
0.0
 10
248.51797562453
 20
153.8544235008063
 30
0.0
 10
247.9938427252973
 20
153.7830383557254
 30
0.0
 10
247.3001366599882
 20
153.6956125218856
 30
0.0
 10
246.4599488133652
 20
153.6003594818204
 30
0.0
 10
245.4827789782709
 20
153.5044259827448
 30
0.0
 10
244.4115842500862
 20
153.4176603547335
 30
0.0
 10
243.2598805876482
 20
153.3459781268995
 30
0.0
 10
242.08393416094
 20
153.2959709936568
 30
0.0
 10
240.8965298040755
 20
153.2692999046174
 30
0.0
 10
239.7545650502035
 20
153.2662552006313
 30
0.0
 10
238.6668836176123
 20
153.2839528527697
 30
0.0
 10
237.6821809473128
 20
153.317307303069
 30
0.0
 10
236.8088292648084
 20
153.3606304047952
 30
0.0
 10
236.0874698520524
 20
153.406158129634
 30
0.0
 10
235.5229018885151
 20
153.4479300929708
 30
0.0
 10
235.1576846614882
 20
153.4777942498151
 30
0.0
 10
234.9816317998865
 20
153.4930187154892
 30
0.0
 10
235.0016926842964
 20
153.4912856986896
 30
0.0
 10
235.0077272318572
 20
153.490764387062
 30
0.0
  0
LINE
  5
A7
330
1F
100
AcDbEntity
  8
0
  6
Continuous
 62
     7
370
    25
100
AcDbLine
 10
353.9828286931
 20
96.6010371205
 30
0.0
 11
353.9828286931
 21
153.3010371205
 31
0.0
  0
LINE
  5
A8
330
1F
100
AcDbEntity
  8
0
  6
Continuous
 62
     7
370
    25
100
AcDbLine
 10
353.9828286931
 20
39.9010371205
 30
0.0
 11
353.9828286931
 21
96.6010371205
 31
0.0
  0
SPLINE
  5
A9
330
1F
100
AcDbEntity
  8
0
  6
Continuous
 62
     7
370
    25
100
AcDbSpline
210
0.0
220
0.0
230
1.0
 70
     8
 71
     3
 72
    27
 73
    23
 74
     0
 42
0.00000001
 43
0.00000001
 40
0.0
 40
0.0
 40
0.0
 40
0.0
 40
0.0165173974823603
 40
0.0708263686366203
 40
0.1235105276281632
 40
0.1777144866611736
 40
0.2305454718389996
 40
0.2849020316967673
 40
0.3378329969209188
 40
0.3923091616236922
 40
0.445050923556996
 40
0.4993347776137103
 40
0.551872014072151
 40
0.6059241899055094
 40
0.6586346325953162
 40
0.7128513823739947
 40
0.7659508962618793
 40
0.8205861052949097
 40
0.8737293231687377
 40
0.928438290450924
 40
0.9811428448036236
 40
1.0
 40
1.0
 40
1.0
 40
1.0
 10
348.9621137459566
 20
153.4911273151544
 30
0.0
 10
348.9679688136181
 20
153.4916332178439
 30
0.0
 10
348.9930752615933
 20
153.4938025214777
 30
0.0
 10
348.8362308276113
 20
153.4801949307106
 30
0.0
 10
348.4904019568816
 20
153.4517193993915
 30
0.0
 10
347.9512105327146
 20
153.4112457287095
 30
0.0
 10
347.2412102820102
 20
153.3655127649224
 30
0.0
 10
346.3871924396735
 20
153.3217394688026
 30
0.0
 10
345.3992488838633
 20
153.2865697005754
 30
0.0
 10
344.323660788255
 20
153.2671145376359
 30
0.0
 10
343.1727375449767
 20
153.2681112826121
 30
0.0
 10
342.0018871835841
 20
153.2922245769396
 30
0.0
 10
340.8222348722826
 20
153.3400589701221
 30
0.0
 10
339.6869870155971
 20
153.4083212790933
 30
0.0
 10
338.6058761606861
 20
153.4935182976436
 30
0.0
 10
337.6259174691953
 20
153.5877090662518
 30
0.0
 10
336.7580460302765
 20
153.6845057769908
 30
0.0
 10
336.0441728097903
 20
153.7735321179335
 30
0.0
 10
335.4894016278035
 20
153.8485490474586
 30
0.0
 10
335.1387017561032
 20
153.8985710129282
 30
0.0
 10
334.9757428542222
 20
153.9225165514909
 30
0.0
 10
334.9996285011042
 20
153.9190124613909
 30
0.0
 10
335.0059225842537
 20
153.9180891020797
 30
0.0
  0
LINE
  5
AA
330
1F
100
AcDbEntity
  8
0
  6
Continuous
 62
     7
370
    25
100
AcDbLine
 10
248.9828286931
 20
165.9010371205
 30
0.0
 11
234.9828286931
 21
165.9010371205
 31
0.0
  0
LINE
  5
AB
330
1F
100
AcDbEntity
  8
0
  6
Continuous
 62
     7
370
    25
100
AcDbLine
 10
348.9828286931
 20
165.9010371205
 30
0.0
 11
334.9828286931
 21
165.9010371205
 31
0.0
  0
LINE
  5
AC
330
1F
100
AcDbEntity
  8
0
  6
Continuous
 62
     1
370
    25
100
AcDbLine
 10
279.4828286931
 20
96.6010371205
 30
0.0
 11
279.4828286931
 21
154.3010371205
 31
0.0
  0
LINE
  5
AD
330
1F
100
AcDbEntity
  8
0
  6
Continuous
 62
     1
370
    25
100
AcDbLine
 10
279.4828286931
 20
38.9010371205
 30
0.0
 11
279.4828286931
 21
96.6010371205
 31
0.0
  0
LINE
  5
AE
330
1F
100
AcDbEntity
  8
0
  6
Continuous
 62
     1
370
    25
100
AcDbLine
 10
304.4828286931
 20
96.6010371205
 30
0.0
 11
304.4828286931
 21
154.3010371205
 31
0.0
  0
LINE
  5
AF
330
1F
100
AcDbEntity
  8
0
  6
Continuous
 62
     1
370
    25
100
AcDbLine
 10
304.4828286931
 20
38.9010371205
 30
0.0
 11
304.4828286931
 21
96.6010371205
 31
0.0
  0
ARC
  5
B0
330
1F
100
AcDbEntity
  8
0
  6
Continuous
 62
     7
370
    25
100
AcDbCircle
 10
1308.4172841106
 20
248.4581102798
 30
0.0
 40
1225.625
100
AcDbArc
 50
180.0
 51
182.3146661363
  0
ARC
  5
B1
330
1F
100
AcDbEntity
  8
0
  6
Continuous
 62
     7
370
    25
100
AcDbCircle
 10
-1027.4327158894
 20
248.4581102798
 30
0.0
 40
1225.625
100
AcDbArc
 50
357.6853338637
 51
0.0
  0
LINE
  5
B2
330
1F
100
AcDbEntity
  8
0
  6
Continuous
 62
     7
370
    25
100
AcDbLine
 10
198.1922841106
 20
248.4581102798
 30
0.0
 11
198.1922841106
 21
273.4581102798
 31
0.0
  0
LINE
  5
B3
330
1F
100
AcDbEntity
  8
0
  6
Continuous
 62
     7
370
    25
100
AcDbLine
 10
82.7922841106
 20
273.4581102798
 30
0.0
 11
82.7922841106
 21
248.4581102798
 31
0.0
  0
ARC
  5
B4
330
1F
100
AcDbEntity
  8
0
  6
Continuous
 62
     7
370
    25
100
AcDbCircle
 10
1308.4172841106
 20
273.4581102798
 30
0.0
 40
1225.625
100
AcDbArc
 50
177.6853338637
 51
180.0
  0
ARC
  5
B5
330
1F
100
AcDbEntity
  8
0
  6
Continuous
 62
     7
370
    25
100
AcDbCircle
 10
-1027.4327158894
 20
273.4581102798
 30
0.0
 40
1225.625
100
AcDbArc
 50
0.0
 51
2.3146661363
  0
LINE
  5
B6
330
1F
100
AcDbEntity
  8
0
  6
Continuous
 62
     7
370
    25
100
AcDbLine
 10
197.1922841106
 20
198.9581102798
 30
0.0
 11
83.7922841106
 21
198.9581102798
 31
0.0
  0
LINE
  5
B7
330
1F
100
AcDbEntity
  8
0
  6
Continuous
 62
     7
370
    25
100
AcDbLine
 10
197.1922841106
 20
322.9581102798
 30
0.0
 11
83.7922841106
 21
322.9581102798
 31
0.0
  0
LINE
  5
B8
330
1F
100
AcDbEntity
  8
0
  6
Continuous
 62
     1
370
    25
100
AcDbLine
 10
198.1922841106
 20
248.4581102798
 30
0.0
 11
82.7922841106
 21
248.4581102798
 31
0.0
  0
LINE
  5
B9
330
1F
100
AcDbEntity
  8
0
  6
Continuous
 62
     1
370
    25
100
AcDbLine
 10
198.1922841106
 20
273.4581102798
 30
0.0
 11
82.7922841106
 21
273.4581102798
 31
0.0
  0
ARC
  5
BA
330
1F
100
AcDbEntity
  8
0
  6
Continuous
 62
     7
370
    25
100
AcDbCircle
 10
-25.4187927112
 20
1264.5260371205
 30
0.0
 40
1225.625
100
AcDbArc
 50
270.0
 51
272.3146661363
  0
ARC
  5
BB
330
1F
100
AcDbEntity
  8
0
  6
Continuous
 62
     7
370
    25
100
AcDbCircle
 10
-25.4187927112
 20
-1071.3239628795
 30
0.0
 40
1225.625000000001
100
AcDbArc
 50
88.5731658328
 51
90.0
  0
ARC
  5
BC
330
1F
100
AcDbEntity
  8
0
  6
Continuous
 62
     7
370
    25
100
AcDbCircle
 10
-25.4187927112
 20
-1071.3239628795
 30
0.0
 40
1225.625000000001
100
AcDbArc
 50
87.6853338637
 51
87.920407052
  0
LINE
  5
BD
330
1F
100
AcDbEntity
  8
0
  6
Continuous
 62
     7
370
    25
100
AcDbLine
 10
-25.4187927112
 20
154.3010371205
 30
0.0
 11
-50.4187927112
 21
154.3010371205
 31
0.0
  0
LINE
  5
BE
330
1F
100
AcDbEntity
  8
0
  6
Continuous
 62
     7
370
    25
100
AcDbLine
 10
-50.4187927112
 20
38.9010371205
 30
0.0
 11
-25.4187927112
 21
38.9010371205
 31
0.0
  0
ARC
  5
BF
330
1F
100
AcDbEntity
  8
0
  6
Continuous
 62
     7
370
    25
100
AcDbCircle
 10
-50.4187927112
 20
1264.5260371205
 30
0.0
 40
1225.625
100
AcDbArc
 50
267.6853338637
 51
270.0
  0
ARC
  5
C0
330
1F
100
AcDbEntity
  8
0
  6
Continuous
 62
     7
370
    25
100
AcDbCircle
 10
-50.4187927112
 20
-1071.3239628795
 30
0.0
 40
1225.625
100
AcDbArc
 50
92.079791702
 51
92.3146661363
  0
ARC
  5
C1
330
1F
100
AcDbEntity
  8
0
  6
Continuous
 62
     7
370
    25
100
AcDbCircle
 10
-50.4187927112
 20
-1071.3239628795
 30
0.0
 40
1225.625000000001
100
AcDbArc
 50
90.0
 51
91.427047981
  0
LINE
  5
C2
330
1F
100
AcDbEntity
  8
0
  6
Continuous
 62
     7
370
    25
100
AcDbLine
 10
19.0812072888
 20
153.4907648749
 30
0.0
 11
19.0812072888
 21
165.9010371205
 31
0.0
  0
LINE
  5
C3
330
1F
100
AcDbEntity
  8
0
  6
Continuous
 62
     7
370
    25
100
AcDbLine
 10
5.0812072888
 20
165.9010371205
 30
0.0
 11
5.0812072888
 21
153.9187749391
 31
0.0
  0
LINE
  5
C4
330
1F
100
AcDbEntity
  8
0
  6
Continuous
 62
     7
370
    25
100
AcDbLine
 10
-80.9187927112
 20
153.9180915086
 30
0.0
 11
-80.9187927112
 21
165.9010371205
 31
0.0
  0
LINE
  5
C5
330
1F
100
AcDbEntity
  8
0
  6
Continuous
 62
     7
370
    25
100
AcDbLine
 10
-94.9187927112
 20
165.9010371205
 30
0.0
 11
-94.9187927112
 21
153.4911297619
 31
0.0
  0
LINE
  5
C6
330
1F
100
AcDbEntity
  8
0
  6
Continuous
 62
     7
370
    25
100
AcDbLine
 10
24.0812072888
 20
153.3010371205
 30
0.0
 11
24.0812072888
 21
39.9010371205
 31
0.0
  0
SPLINE
  5
C7
330
1F
100
AcDbEntity
  8
0
  6
Continuous
 62
     7
370
    25
100
AcDbSpline
210
0.0
220
0.0
230
1.0
 70
     8
 71
     3
 72
    12
 73
     8
 74
     0
 42
0.00000001
 43
0.00000001
 40
0.0
 40
0.0
 40
0.0
 40
0.0
 40
0.2087030597784985
 40
0.4234189888031306
 40
0.632134495154676
 40
0.84698323424203
 40
1.0
 40
1.0
 40
1.0
 40
1.0
 10
7.185699290453811
 20
153.6482882121249
 30
0.0
 10
6.922134233937963
 20
153.6790405386351
 30
0.0
 10
6.387410642284743
 20
153.7414311859411
 30
0.0
 10
5.783205619786326
 20
153.8217407543549
 30
0.0
 10
5.348798617133818
 20
153.8823482961594
 30
0.0
 10
5.109133363262138
 20
153.9173686861403
 30
0.0
 10
5.102447070942893
 20
153.9183586766646
 30
0.0
 10
5.099665851143465
 20
153.91877047159
 30
0.0
  0
SPLINE
  5
C8
330
1F
100
AcDbEntity
  8
0
  6
Continuous
 62
     7
370
    25
100
AcDbSpline
210
0.0
220
0.0
230
1.0
 70
     8
 71
     3
 72
    21
 73
    17
 74
     0
 42
0.00000001
 43
0.00000001
 40
0.0
 40
0.0
 40
0.0
 40
0.0
 40
0.0424054927752618
 40
0.1130032972775359
 40
0.1856436822183483
 40
0.256340075360412
 40
0.3290735957346268
 40
0.3999889024464583
 40
0.4729660974187762
 40
0.5437657105700237
 40
0.6166386401377193
 40
0.6870948141441362
 40
0.7595947166672073
 40
0.8300731595801507
 40
0.9025679995025266
 40
1.0
 40
1.0
 40
1.0
 40
1.0
 10
19.05630780277778
 20
153.4907643053409
 30
0.0
 10
19.05937123840758
 20
153.4910267215483
 30
0.0
 10
19.06753476403859
 20
153.4917260153132
 30
0.0
 10
18.85956704850456
 20
153.4738416891553
 30
0.0
 10
18.4630813361706
 20
153.4418396458152
 30
0.0
 10
17.87295469457691
 20
153.3990833671401
 30
0.0
 10
17.12684095654744
 20
153.3534419019797
 30
0.0
 10
16.22874731762524
 20
153.3110127278002
 30
0.0
 10
15.22084461036836
 20
153.2796761030406
 30
0.0
 10
14.11435250205686
 20
153.2651790171157
 30
0.0
 10
12.9627600758922
 20
153.2721975027868
 30
0.0
 10
11.77825514077577
 20
153.3029465106523
 30
0.0
 10
10.61486255098255
 20
153.3562838665057
 30
0.0
 10
9.486168199994482
 20
153.4300203775804
 30
0.0
 10
8.29642109570996
 20
153.5289249539902
 30
0.0
 10
7.590473066069241
 20
153.6047893662066
 30
0.0
 10
7.185699290453811
 20
153.6482882121249
 30
0.0
  0
LINE
  5
C9
330
1F
100
AcDbEntity
  8
0
  6
Continuous
 62
     7
370
    25
100
AcDbLine
 10
-99.9187927112
 20
153.3010371205
 30
0.0
 11
-99.9187927112
 21
39.9010371205
 31
0.0
  0
SPLINE
  5
CA
330
1F
100
AcDbEntity
  8
0
  6
Continuous
 62
     7
370
    25
100
AcDbSpline
210
0.0
220
0.0
230
1.0
 70
     8
 71
     3
 72
    12
 73
     8
 74
     0
 42
0.00000001
 43
0.00000001
 40
0.0
 40
0.0
 40
0.0
 40
0.0
 40
0.2108079562794997
 40
0.4277191730460479
 40
0.6385299658914618
 40
0.8554808492392598
 40
1.0
 40
1.0
 40
1.0
 40
1.0
 10
-92.85101957062739
 20
153.3493199312915
 30
0.0
 10
-93.1129900186162
 20
153.364079412209
 30
0.0
 10
-93.64451541905088
 20
153.3940256869323
 30
0.0
 10
-94.24160671042961
 20
153.4374834596703
 30
0.0
 10
-94.66679492208661
 20
153.4712321692395
 30
0.0
 10
-94.8957855589497
 20
153.4909212351683
 30
0.0
 10
-94.8974263959678
 20
153.4910687419612
 30
0.0
 10
-94.89808241818268
 20
153.4911277165772
 30
0.0
  0
SPLINE
  5
CB
330
1F
100
AcDbEntity
  8
0
  6
Continuous
 62
     7
370
    25
100
AcDbSpline
210
0.0
220
0.0
230
1.0
 70
     8
 71
     3
 72
    21
 73
    17
 74
     0
 42
0.00000001
 43
0.00000001
 40
0.0
 40
0.0
 40
0.0
 40
0.0
 40
0.0472560202763115
 40
0.1171445208794938
 40
0.1890477177566016
 40
0.2591848036705371
 40
0.3313188404968312
 40
0.4021093351492149
 40
0.4749380727433212
 40
0.5459496069742482
 40
0.619044285536329
 40
0.689624797431386
 40
0.7622771830717353
 40
0.8324451830603018
 40
0.904642313862566
 40
1.0
 40
1.0
 40
1.0
 40
1.0
 10
-80.9418908044963
 20
153.918088486211
 30
0.0
 10
-80.94111797171071
 20
153.9181976307736
 30
0.0
 10
-80.93920217080623
 20
153.918468192861
 30
0.0
 10
-81.16031568073338
 20
153.8861677906701
 30
0.0
 10
-81.56603455663029
 20
153.8290662852456
 30
0.0
 10
-82.16098761812874
 20
153.750212458441
 30
0.0
 10
-82.91062897132164
 20
153.6591909748246
 30
0.0
 10
-83.81129923270953
 20
153.562199332858
 30
0.0
 10
-84.82384138058102
 20
153.4693481584996
 30
0.0
 10
-85.93623696363161
 20
153.3872276456005
 30
0.0
 10
-87.09516514732266
 20
153.323918601392
 30
0.0
 10
-88.2866711874523
 20
153.2825754125463
 30
0.0
 10
-89.45364952915911
 20
153.2654460338197
 30
0.0
 10
-90.58248777463021
 20
153.2710162484589
 30
0.0
 10
-91.7599874562282
 20
153.2979287334961
 30
0.0
 10
-92.45530503931725
 20
153.3306804765214
 30
0.0
 10
-92.85101957062739
 20
153.3493199312915
 30
0.0
  0
LINE
  5
CC
330
1F
100
AcDbEntity
  8
0
  6
Continuous
 62
     7
370
    25
100
AcDbLine
 10
19.0812072888
 20
165.9010371205
 30
0.0
 11
5.0812072888
 21
165.9010371205
 31
0.0
  0
LINE
  5
CD
330
1F
100
AcDbEntity
  8
0
  6
Continuous
 62
     7
370
    25
100
AcDbLine
 10
-80.9187927112
 20
165.9010371205
 30
0.0
 11
-94.9187927112
 21
165.9010371205
 31
0.0
  0
LINE
  5
CE
330
1F
100
AcDbEntity
  8
0
  6
Continuous
 62
     1
370
    25
100
AcDbLine
 10
-25.4187927112
 20
154.3010371205
 30
0.0
 11
-25.4187927112
 21
38.9010371205
 31
0.0
  0
LINE
  5
CF
330
1F
100
AcDbEntity
  8
0
  6
Continuous
 62
     1
370
    25
100
AcDbLine
 10
-50.4187927112
 20
154.3010371205
 30
0.0
 11
-50.4187927112
 21
38.9010371205
 31
0.0
  0
ARC
  5
D0
330
1F
100
AcDbEntity
  8
0
  6
Continuous
 62
     7
370
    25
100
AcDbCircle
 10
-1027.4327158894
 20
-66.0678299529
 30
0.0
 40
1225.625
100
AcDbArc
 50
0.0
 51
2.3146661363
  0
ARC
  5
D1
330
1F
100
AcDbEntity
  8
0
  6
Continuous
 62
     7
370
    25
100
AcDbCircle
 10
1308.4172841106
 20
-66.0678299529
 30
0.0
 40
1225.625
100
AcDbArc
 50
177.6853338637
 51
180.0
  0
LINE
  5
D2
330
1F
100
AcDbEntity
  8
0
  6
Continuous
 62
     7
370
    25
100
AcDbLine
 10
82.7922841106
 20
-66.0678299529
 30
0.0
 11
82.7922841106
 21
-91.0678299529
 31
0.0
  0
LINE
  5
D3
330
1F
100
AcDbEntity
  8
0
  6
Continuous
 62
     7
370
    25
100
AcDbLine
 10
198.1922841106
 20
-91.0678299529
 30
0.0
 11
198.1922841106
 21
-66.0678299529
 31
0.0
  0
ARC
  5
D4
330
1F
100
AcDbEntity
  8
0
  6
Continuous
 62
     7
370
    25
100
AcDbCircle
 10
-1027.4327158894
 20
-91.0678299529
 30
0.0
 40
1225.625
100
AcDbArc
 50
357.6853338637
 51
0.0
  0
ARC
  5
D5
330
1F
100
AcDbEntity
  8
0
  6
Continuous
 62
     7
370
    25
100
AcDbCircle
 10
1308.4172841106
 20
-91.0678299529
 30
0.0
 40
1225.625
100
AcDbArc
 50
180.0
 51
182.3146661363
  0
CIRCLE
  5
D6
330
1F
100
AcDbEntity
  8
0
  6
Continuous
 62
     7
370
    25
100
AcDbCircle
 10
140.4922841106
 20
-28.5678299529
 30
0.0
 40
7.000000000000018
  0
CIRCLE
  5
D7
330
1F
100
AcDbEntity
  8
0
  6
Continuous
 62
     7
370
    25
100
AcDbCircle
 10
140.4922841106
 20
-28.5678299529
 30
0.0
 40
5.000000000000004
  0
CIRCLE
  5
D8
330
1F
100
AcDbEntity
  8
0
  6
Continuous
 62
     7
370
    25
100
AcDbCircle
 10
140.4922841106
 20
-128.5678299529
 30
0.0
 40
7.0
  0
CIRCLE
  5
D9
330
1F
100
AcDbEntity
  8
0
  6
Continuous
 62
     7
370
    25
100
AcDbCircle
 10
140.4922841106
 20
-128.5678299529
 30
0.0
 40
5.0
  0
LINE
  5
DA
330
1F
100
AcDbEntity
  8
0
  6
Continuous
 62
     7
370
    25
100
AcDbLine
 10
83.7922841106
 20
-16.5678299529
 30
0.0
 11
197.1922841106
 21
-16.5678299529
 31
0.0
  0
LINE
  5
DB
330
1F
100
AcDbEntity
  8
0
  6
Continuous
 62
     7
370
    25
100
AcDbLine
 10
83.7922841106
 20
-140.5678299529
 30
0.0
 11
197.1922841106
 21
-140.5678299529
 31
0.0
  0
LINE
  5
DC
330
1F
100
AcDbEntity
  8
0
  6
Continuous
 62
     1
370
    25
100
AcDbLine
 10
82.7922841106
 20
-66.0678299529
 30
0.0
 11
198.1922841106
 21
-66.0678299529
 31
0.0
  0
LINE
  5
DD
330
1F
100
AcDbEntity
  8
0
  6
Continuous
 62
     1
370
    25
100
AcDbLine
 10
82.7922841106
 20
-91.0678299529
 30
0.0
 11
198.1922841106
 21
-91.0678299529
 31
0.0
  0
INSERT
  5
E9
330
1F
100
AcDbEntity
  8
FORMAT
 62
     7
100
AcDbBlockReference
  2
SW_CENTERMARKSYMBOL_1
 10
140.4922841106
 20
-28.5678299529
 30
0.0
  0
INSERT
  5
F5
330
1F
100
AcDbEntity
  8
FORMAT
 62
     7
100
AcDbBlockReference
  2
SW_CENTERMARKSYMBOL_2
 10
140.4922841106
 20
-128.5678299529
 30
0.0
  0
SPLINE
  5
F6
330
1F
100
AcDbEntity
  8
0
  6
Continuous
 62
     7
370
    25
100
AcDbSpline
210
0.0
220
0.0
230
1.0
 70
     8
 71
     3
 72
    12
 73
     8
 74
     0
 42
0.00000001
 43
0.00000001
 40
0.0
 40
0.0
 40
0.0
 40
0.0
 40
0.0493035561835875
 40
0.3016551541169048
 40
0.5539360790934738
 40
0.8061270649921893
 40
1.0
 40
1.0
 40
1.0
 40
1.0
 10
271.9616492879264
 20
-18.25226649314427
 30
0.0
 10
271.3710915517538
 20
-18.58949291126256
 30
0.0
 10
267.7578677052475
 20
-20.65275355621437
 30
0.0
 10
261.1858998321924
 20
-24.55103031883815
 30
0.0
 10
252.255796850166
 20
-29.9547437894852
 30
0.0
 10
244.0774228058347
 20
-35.03967543912201
 30
0.0
 10
238.9074378267741
 20
-38.36776825803241
 30
0.0
 10
236.6604052494704
 20
-39.81425853115132
 30
0.0
  0
SPLINE
  5
F7
330
1F
100
AcDbEntity
  8
0
  6
Continuous
 62
     7
370
    25
100
AcDbSpline
210
0.0
220
0.0
230
1.0
 70
     8
 71
     3
 72
    12
 73
     8
 74
     0
 42
0.00000001
 43
0.00000001
 40
0.0
 40
0.0
 40
0.0
 40
0.0
 40
0.0395589137081298
 40
0.292007026001876
 40
0.5444591871704196
 40
0.7968975074098621
 40
1.0
 40
1.0
 40
1.0
 40
1.0
 10
293.3230288471364
 20
-137.9661741473182
 30
0.0
 10
293.8093198192397
 20
-137.7197517568967
 30
0.0
 10
297.3989123339169
 20
-135.9007667893583
 30
0.0
 10
304.0383083812809
 20
-132.3964763514741
 30
0.0
 10
313.2323432547097
 20
-127.4435651872092
 30
0.0
 10
321.7720317402486
 20
-122.7070125559282
 30
0.0
 10
327.2183577277381
 20
-119.5736295870212
 30
0.0
 10
329.6465976403086
 20
-118.1766133959328
 30
0.0
  0
LINE
  5
F8
330
1F
100
AcDbEntity
  8
0
  6
Continuous
 62
     7
370
    25
100
AcDbLine
 10
281.2876109757
 20
-36.9357031482
 30
0.0
 11
281.2876109757
 21
-26.9358184663
 31
0.0
  0
LINE
  5
F9
330
1F
100
AcDbEntity
  8
0
  6
Continuous
 62
     7
370
    25
100
AcDbLine
 10
267.2876109757
 20
-26.9358184663
 30
0.0
 11
267.2876109757
 21
-37.1835910814
 31
0.0
  0
LINE
  5
FA
330
1F
100
AcDbEntity
  8
0
  6
Continuous
 62
     7
370
    25
100
AcDbLine
 10
289.6341293633
 20
-8.0383238761
 30
0.0
 11
271.9564598337
 21
-18.2434252739
 31
0.0
  0
LINE
  5
FB
330
1F
100
AcDbEntity
  8
0
  6
Continuous
 62
     7
370
    25
100
AcDbLine
 10
329.6517707068
 20
-118.1854639927
 30
0.0
 11
347.3294402364
 21
-107.9803625949
 31
0.0
  0
SPLINE
  5
FC
330
1F
100
AcDbEntity
  8
0
  6
Continuous
 62
     7
370
    25
100
AcDbSpline
210
0.0
220
0.0
230
1.0
 70
     8
 71
     3
 72
    12
 73
     8
 74
     0
 42
0.00000001
 43
0.00000001
 40
0.0
 40
0.0
 40
0.0
 40
0.0
 40
0.0395381666681056
 40
0.2919918521778659
 40
0.5444495866523776
 40
0.7968934798910572
 40
1.0
 40
1.0
 40
1.0
 40
1.0
 10
325.9620742020861
 20
11.74198164495892
 30
0.0
 10
325.4760490809001
 20
11.49569375918649
 30
0.0
 10
321.8867229360806
 20
9.676842203945574
 30
0.0
 10
315.2475921693639
 20
6.172687470703542
 30
0.0
 10
306.0535566903118
 20
1.21977758311461
 30
0.0
 10
297.5138738440172
 20
-3.516772286842419
 30
0.0
 10
292.0675532862242
 20
-6.650152065776509
 30
0.0
 10
289.6393188175902
 20
-8.047165095360562
 30
0.0
  0
SPLINE
  5
FD
330
1F
100
AcDbEntity
  8
0
  6
Continuous
 62
     7
370
    25
100
AcDbSpline
210
0.0
220
0.0
230
1.0
 70
     8
 71
     3
 72
    12
 73
     8
 74
     0
 42
0.00000001
 43
0.00000001
 40
0.0
 40
0.0
 40
0.0
 40
0.0
 40
0.0493032720567509
 40
0.3016557511827236
 40
0.5539375571050493
 40
0.8061294236347331
 40
1.0
 40
1.0
 40
1.0
 40
1.0
 10
347.3242671699722
 20
-107.9715119981488
 30
0.0
 10
347.9148194383511
 20
-107.6342886968756
 30
0.0
 10
351.5280378049832
 20
-105.5710311478675
 30
0.0
 10
358.1000002364549
 20
-101.6727575451001
 30
0.0
 10
367.0301031887456
 20
-96.26904403374772
 30
0.0
 10
375.2084418277702
 20
-91.18413470252403
 30
0.0
 10
380.3783916884042
 20
-87.85606462937774
 30
0.0
 10
382.6253891104595
 20
-86.40959704722172
 30
0.0
  0
LINE
  5
FE
330
1F
100
AcDbEntity
  8
0
  6
Continuous
 62
     7
370
    25
100
AcDbLine
 10
351.9982890944
 20
3.6365411076
 30
0.0
 11
351.9982890944
 21
13.8845871248
 31
0.0
  0
LINE
  5
FF
330
1F
100
AcDbEntity
  8
0
  6
Continuous
 62
     7
370
    25
100
AcDbLine
 10
337.9982890944
 20
13.8845871248
 30
0.0
 11
337.9982890944
 21
3.8843128905
 31
0.0
  0
LWPOLYLINE
  5
100
330
1F
100
AcDbEntity
  8
0
  6
Continuous
 62
     7
370
    25
100
AcDbPolyline
 90
      125
 70
   128
 43
0.0
 10
225.7093751082
 20
-65.2753754307
 10
225.7608341278
 20
-62.9601337581
 10
225.915079092
 20
-60.710248597
 10
226.1717140562
 20
-58.5314953703
 10
226.5300802421
 20
-56.4294669064
 10
226.9892577288
 20
-54.4095590822
 10
227.5480678144
 20
-52.4769569721
 10
228.2050760413
 20
-50.636621538
 10
228.958595879
 20
-48.8932768945
 10
229.8066930526
 20
-47.2513981824
 10
230.7471905091
 20
-45.7152000807
 10
231.7776740048
 20
-44.288625988
 10
232.8954983034
 20
-42.9753378995
 10
234.0977939661
 20
-41.7787070069
 10
235.381474717
 20
-40.7018050444
 10
236.7432453661
 20
-39.7473964041
 10
238.1796102676
 20
-38.9179310392
 10
239.6868822935
 20
-38.2155381753
 10
241.2611922981
 20
-37.642020845
 10
242.8984990502
 20
-37.198851259
 10
244.5945996069
 20
-36.8871670271
 10
246.3451401022
 20
-36.7077682385
 10
248.145626924
 20
-36.6611154072
 10
249.9914382483
 20
-36.7473282903
 10
251.8778359039
 20
-36.9661855806
 10
253.7999775352
 20
-37.3171254746
 10
255.752929032
 20
-37.7992471147
 10
257.731677196
 20
-38.4113129014
 10
259.731142609
 20
-39.1517516708
 10
261.7461926719
 20
-40.018662727
 10
263.7716547801
 20
-41.0098207218
 10
265.8023296015
 20
-42.122681367
 10
267.8330044229
 20
-43.3543879651
 10
269.8584665311
 20
-44.701778743
 10
271.873516594
 20
-46.1613949679
 10
273.872982007
 20
-47.7294898258
 10
275.851730171
 20
-49.4020380399
 10
277.8046816678
 20
-51.1747462027
 10
279.7268232991
 20
-53.0430637979
 10
281.6132209547
 20
-55.0021948809
 10
283.459032279
 20
-57.0471103905
 10
285.2595191007
 20
-59.1725610578
 10
287.0100595961
 20
-61.3730908814
 10
288.7061601527
 20
-63.6430511328
 10
290.3434669048
 20
-65.9766148567
 10
291.9177769094
 20
-68.3677918283
 10
293.4250489354
 20
-70.8104439308
 10
294.8614138369
 20
-73.2983009112
 10
296.223184486
 20
-75.8249764764
 10
297.5068652369
 20
-78.3839846863
 10
298.7091608996
 20
-80.9687566036
 10
299.8269851982
 20
-83.5726571559
 10
300.8574686939
 20
-86.1890021678
 10
301.7979661504
 20
-88.8110755191
 10
302.646063324
 20
-91.4321463853
 10
303.3995831616
 20
-94.0454865149
 10
304.0565913886
 20
-96.6443875013
 10
304.6154014742
 20
-99.222178003
 10
305.0745789609
 20
-101.7722408688
 10
305.4329451468
 20
-104.2880301237
 10
305.689580111
 20
-106.763087773
 10
305.8438250752
 20
-109.1910603791
 10
305.8952840948
 20
-111.5657153711
 10
305.8438250752
 20
-113.8809570437
 10
305.689580111
 20
-116.1308422048
 10
305.4329451468
 20
-118.3095954315
 10
305.0745789609
 20
-120.4116238954
 10
304.6154014742
 20
-122.4315317196
 10
304.0565913886
 20
-124.3641338297
 10
303.3995831616
 20
-126.2044692638
 10
302.646063324
 20
-127.9478139073
 10
301.7979661504
 20
-129.5896926194
 10
300.8574686939
 20
-131.1258907211
 10
299.8269851982
 20
-132.5524648138
 10
298.7091608996
 20
-133.8657529023
 10
297.5068652369
 20
-135.062383795
 10
296.223184486
 20
-136.1392857574
 10
294.8614138369
 20
-137.0936943977
 10
293.4250489354
 20
-137.9231597626
 10
291.9177769094
 20
-138.6255526265
 10
290.3434669048
 20
-139.1990699568
 10
288.7061601527
 20
-139.6422395429
 10
287.0100595961
 20
-139.9539237747
 10
285.2595191007
 20
-140.1333225633
 10
283.459032279
 20
-140.1799753947
 10
281.6132209547
 20
-140.0937625115
 10
279.7268232991
 20
-139.8749052212
 10
277.8046816678
 20
-139.5239653272
 10
275.851730171
 20
-139.0418436871
 10
273.872982007
 20
-138.4297779004
 10
271.873516594
 20
-137.689339131
 10
269.8584665311
 20
-136.8224280748
 10
267.8330044229
 20
-135.83127008
 10
265.8023296015
 20
-134.7184094348
 10
263.7716547801
 20
-133.4867028367
 10
261.7461926719
 20
-132.1393120588
 10
259.731142609
 20
-130.6796958339
 10
257.731677196
 20
-129.111600976
 10
255.752929032
 20
-127.4390527619
 10
253.7999775352
 20
-125.6663445991
 10
251.8778359039
 20
-123.7980270039
 10
249.9914382483
 20
-121.8388959209
 10
248.145626924
 20
-119.7939804113
 10
246.3451401022
 20
-117.668529744
 10
244.5945996069
 20
-115.4679999204
 10
242.8984990502
 20
-113.198039669
 10
241.2611922981
 20
-110.8644759451
 10
239.6868822935
 20
-108.4732989735
 10
238.1796102676
 20
-106.030646871
 10
236.7432453661
 20
-103.5427898906
 10
235.381474717
 20
-101.0161143254
 10
234.0977939661
 20
-98.4571061155
 10
232.8954983034
 20
-95.8723341982
 10
231.7776740048
 20
-93.2684336459
 10
230.7471905091
 20
-90.6520886341
 10
229.8066930526
 20
-88.0300152827
 10
228.958595879
 20
-85.4089444166
 10
228.2050760413
 20
-82.7956042869
 10
227.5480678144
 20
-80.1967033005
 10
226.9892577288
 20
-77.6189127988
 10
226.5300802421
 20
-75.068849933
 10
226.1717140562
 20
-72.5530606781
 10
225.915079092
 20
-70.0780030288
 10
225.7608341278
 20
-67.6500304227
 10
225.7093751082
 20
-65.2753754307
  0
SPLINE
  5
101
330
1F
100
AcDbEntity
  8
0
  6
Continuous
 62
     7
370
    25
100
AcDbSpline
210
0.0
220
0.0
230
1.0
 70
     8
 71
     3
 72
    17
 73
    13
 74
     0
 42
0.00000001
 43
0.00000001
 40
0.0
 40
0.0
 40
0.0
 40
0.0
 40
0.1071621001676806
 40
0.2143236150567484
 40
0.3214968389378394
 40
0.4286682246754683
 40
0.5355901564919666
 40
0.642512546542416
 40
0.7492406338104525
 40
0.8559705836156113
 40
0.9629988573073421
 40
1.0
 40
1.0
 40
1.0
 40
1.0
 10
274.3123451596602
 20
-41.22579656843106
 30
0.0
 10
273.918838130295
 20
-41.20306729787561
 30
0.0
 10
273.1318262207503
 20
-41.15760888090335
 30
0.0
 10
271.9831486430922
 20
-40.94765175004289
 30
0.0
 10
270.9009166200459
 20
-40.64299449267835
 30
0.0
 10
269.9134034770076
 20
-40.24818023362743
 30
0.0
 10
269.0528473017008
 20
-39.77664314237687
 30
0.0
 10
268.3394400676232
 20
-39.24403744145306
 30
0.0
 10
267.7943715389865
 20
-38.66259490738896
 30
0.0
 10
267.4419668255736
 20
-38.04644723255522
 30
0.0
 10
267.281221081268
 20
-37.54781445968784
 30
0.0
 10
267.3045248830526
 20
-37.25830223091938
 30
0.0
 10
267.310511627405
 20
-37.18392656824681
 30
0.0
  0
SPLINE
  5
102
330
1F
100
AcDbEntity
  8
0
  6
Continuous
 62
     7
370
    25
100
AcDbSpline
210
0.0
220
0.0
230
1.0
 70
     8
 71
     3
 72
    16
 73
    12
 74
     0
 42
0.00000001
 43
0.00000001
 40
0.0
 40
0.0
 40
0.0
 40
0.0
 40
0.1039503637660145
 40
0.2117529885503606
 40
0.3199235298372875
 40
0.4280898561211858
 40
0.5356032015503616
 40
0.6431154168712456
 40
0.7499758225799943
 40
0.8568387094785256
 40
1.0
 40
1.0
 40
1.0
 40
1.0
 10
281.2841651003468
 20
-36.93554599632635
 30
0.0
 10
281.2673541242638
 20
-37.1796611909026
 30
0.0
 10
281.233109179878
 20
-37.67693816165402
 30
0.0
 10
280.9363753841207
 20
-38.40864320451161
 30
0.0
 10
280.4579417102057
 20
-39.10195077129688
 30
0.0
 10
279.8024965938147
 20
-39.72660492525459
 30
0.0
 10
278.9885760953882
 20
-40.25800028436725
 30
0.0
 10
278.0468976102416
 20
-40.68576570009386
 30
0.0
 10
276.998903207677
 20
-40.9922769294967
 30
0.0
 10
275.7523652331082
 20
-41.21186190798366
 30
0.0
 10
274.8366654840378
 20
-41.22072287132045
 30
0.0
 10
274.3123451596602
 20
-41.22579656843106
 30
0.0
  0
LWPOLYLINE
  5
103
330
1F
100
AcDbEntity
  8
0
  6
Continuous
 62
     7
370
    25
100
AcDbPolyline
 90
      112
 70
   128
 43
0.0
 10
233.7703924137
 20
-69.9289016681
 10
233.8216963896
 20
-67.8658474253
 10
233.9754439749
 20
-65.8686360768
 10
234.23114267
 20
-63.9436652927
 10
234.5879733947
 20
-62.0971013348
 10
235.0447931127
 20
-60.3348593041
 10
235.6001384927
 20
-58.6625841931
 10
236.2522305961
 20
-57.0856328031
 10
236.9989805752
 20
-55.6090565849
 10
237.8379963647
 20
-54.2375854572
 10
238.7665903441
 20
-52.9756126555
 10
239.781787947
 20
-51.8271806592
 10
240.8803371893
 20
-50.7959682421
 10
242.0587190867
 20
-49.8852786886
 10
243.3131589267
 20
-49.0980292118
 10
244.6396383603
 20
-48.436741609
 10
246.033908274
 20
-47.903534184
 10
247.4915024009
 20
-47.5001149608
 10
249.0077516275
 20
-47.2277762127
 10
250.5777989506
 20
-47.087390323
 10
252.1966150351
 20
-47.0794069899
 10
253.8590143252
 20
-47.2038517864
 10
255.5596716547
 20
-47.4603260785
 10
257.2931393056
 20
-47.8480083015
 10
259.0538644582
 20
-48.3656565924
 10
260.8362069792
 20
-49.0116127678
 10
262.6344574882
 20
-49.7838076352
 10
264.4428556465
 20
-50.6797676217
 10
266.2556086098
 20
-51.6966226973
 10
268.0669095838
 20
-52.8311155687
 10
269.8709564253
 20
-54.0796121131
 10
271.6619702286
 20
-55.4381130199
 10
273.4342138364
 20
-56.9022666009
 10
275.1820102182
 20
-58.4673827309
 10
276.8997606552
 20
-60.1284478711
 10
278.5819626749
 20
-61.8801411291
 10
280.2232276772
 20
-63.7168513032
 10
281.8182981954
 20
-65.632694857
 10
283.3620647377
 20
-67.6215347661
 10
284.8495821546
 20
-69.6770001767
 10
286.2760854793
 20
-71.7925068133
 10
287.6370051916
 20
-73.9612780705
 10
288.9279818554
 20
-76.17636672
 10
290.1448800831
 20
-78.4306771652
 10
291.283801783
 20
-80.71698817
 10
292.3410986455
 20
-83.0279759911
 10
293.31338383
 20
-85.3562378377
 10
294.1975428138
 20
-87.6943155852
 10
294.9907433693
 20
-90.0347196658
 10
295.6904446359
 20
-92.3699530596
 10
296.2944052595
 20
-94.69253531
 10
296.8006905722
 20
-96.9950264859
 10
297.2076787894
 20
-99.2700510139
 10
297.5140662053
 20
-101.5103213045
 10
297.7188713685
 20
-103.7086610967
 10
297.8214382264
 20
-105.8580284453
 10
297.8214382264
 20
-107.9515382787
 10
297.7188713685
 20
-109.9824844539
 10
297.5140662053
 20
-111.9443612379
 10
297.2076787894
 20
-113.8308841479
 10
296.8006905722
 20
-115.6360100823
 10
296.2944052595
 20
-117.3539566785
 10
295.6904446359
 20
-118.9792208357
 10
294.9907433693
 20
-120.5065963428
 10
294.1975428138
 20
-121.9311905556
 10
293.31338383
 20
-123.2484400694
 10
292.3410986455
 20
-124.4541253367
 10
291.283801783
 20
-125.5443841843
 10
290.1448800831
 20
-126.5157241844
 10
288.9279818554
 20
-127.365033842
 10
287.6370051916
 20
-128.0895925624
 10
286.2760854793
 20
-128.6870793655
 10
284.8495821546
 20
-129.155580321
 10
283.3620647377
 20
-129.4935946789
 10
281.8182981954
 20
-129.7000396776
 10
280.2232276772
 20
-129.7742540113
 10
278.5819626749
 20
-129.7159999492
 10
276.8997606552
 20
-129.5254640967
 10
275.1820102182
 20
-129.2032567975
 10
273.4342138364
 20
-128.7504101786
 10
271.6619702286
 20
-128.1683748445
 10
269.8709564253
 20
-127.4590152296
 10
268.0669095838
 20
-126.6246036268
 10
266.2556086098
 20
-125.6678129078
 10
264.4428556465
 20
-124.591707962
 10
262.6344574882
 20
-123.3997358777
 10
260.8362069792
 20
-122.095714901
 10
259.0538644582
 20
-120.6838222041
 10
257.2931393056
 20
-119.1685805051
 10
255.5596716547
 20
-117.5548435798
 10
253.8590143252
 20
-115.8477807142
 10
252.1966150351
 20
-114.0528601453
 10
250.5777989506
 20
-112.1758315447
 10
249.0077516275
 20
-110.222707601
 10
247.4915024009
 20
-108.199744759
 10
246.033908274
 20
-106.1134231784
 10
244.6396383603
 20
-103.9704259764
 10
243.3131589267
 20
-101.777617819
 10
242.0587190867
 20
-99.5420229318
 10
240.8803371893
 20
-97.2708025992
 10
239.781787947
 20
-94.9712322247
 10
238.7665903441
 20
-92.6506780254
 10
237.8379963647
 20
-90.3165734361
 10
236.9989805752
 20
-87.9763952973
 10
236.2522305961
 20
-85.6376399053
 10
235.6001384927
 20
-83.3077989985
 10
235.0447931127
 20
-80.9943357598
 10
234.5879733947
 20
-78.7046609094
 10
234.23114267
 20
-76.4461089661
 10
233.9754439749
 20
-74.2259147527
 10
233.8216963896
 20
-72.0511902206
 10
233.7703924137
 20
-69.9289016681
  0
LWPOLYLINE
  5
104
330
1F
100
AcDbEntity
  8
0
  6
Continuous
 62
     7
370
    25
100
AcDbPolyline
 90
       44
 70
   128
 43
0.0
 10
279.237358444
 20
-24.0783900749
 10
279.9052998185
 20
-24.524885548
 10
280.4535099085
 20
-25.0227658706
 10
280.8703045676
 20
-25.5614195878
 10
281.1468005414
 20
-26.129366231
 10
281.2771047981
 20
-26.7145010035
 10
281.2584401289
 20
-27.3043527734
 10
281.0912043386
 20
-27.8863498745
 10
280.7789617679
 20
-28.4480880488
 10
280.328367325
 20
-28.9775948225
 10
279.7490246482
 20
-29.463584678
 10
279.0532814208
 20
-29.8956995853
 10
278.2559662017
 20
-30.2647297653
 10
277.3740723807
 20
-30.5628099805
 10
276.4263959934
 20
-30.7835871685
 10
275.4331351167
 20
-30.922355847
 10
274.4154593818
 20
-30.9761584024
 10
273.39505878
 20
-30.9438481267
 10
272.3936813787
 20
-30.8261136574
 10
271.4326697986
 20
-30.6254643002
 10
270.532506333
 20
-30.3461765478
 10
269.7123764035
 20
-29.9942029338
 10
268.9897596557
 20
-29.5770451647
 10
268.3800574108
 20
-29.1035942341
 10
267.8962644138
 20
-28.5839409266
 10
267.5486918724
 20
-28.0291607502
 10
267.3447476919
 20
-27.4510778813
 10
267.2887785885
 20
-26.8620131525
 10
267.3819774463
 20
-26.2745214558
 10
267.6223578937
 20
-25.7011241568
 10
268.0047966386
 20
-25.1540422234
 10
268.5211426631
 20
-24.6449357571
 10
269.1603909483
 20
-24.1846554785
 10
269.9089170268
 20
-23.7830114626
 10
270.7507673647
 20
-23.4485640541
 10
271.6679993837
 20
-23.1884414191
 10
272.6410638758
 20
-23.0081876199
 10
273.6492216606
 20
-22.9116444531
 10
274.6709856053
 20
-22.9008695689
 10
275.6845785854
 20
-22.9760926152
 10
276.6683976263
 20
-23.1357103433
 10
277.6014743331
 20
-23.3763207785
 10
278.4639217958
 20
-23.692795727
 10
279.237358444
 20
-24.0783900749
  0
LWPOLYLINE
  5
105
330
1F
100
AcDbEntity
  8
0
  6
Continuous
 62
     7
370
    25
100
AcDbPolyline
 90
       37
 70
   128
 43
0.0
 10
277.8231448817
 20
-24.8947981867
 10
278.3833711972
 20
-25.2802253231
 10
278.8191499109
 20
-25.7159568193
 10
279.1172401072
 20
-26.1887531943
 10
279.2685844662
 20
-26.6842487697
 10
279.2685844662
 20
-27.1873881629
 10
279.1172401072
 20
-27.6828837382
 10
278.8191499109
 20
-28.1556801133
 10
278.3833711972
 20
-28.5914116095
 10
277.8231448817
 20
-28.9768387458
 10
277.1554931575
 20
-29.3002505138
 10
276.4007022844
 20
-29.5518202104
 10
275.5817062012
 20
-29.7239040178
 10
274.7233896895
 20
-29.8112732566
 10
273.851832262
 20
-29.8112732566
 10
272.9935157502
 20
-29.7239040178
 10
272.174519667
 20
-29.5518202104
 10
271.419728794
 20
-29.3002505138
 10
270.7520770698
 20
-28.9768387458
 10
270.1918507543
 20
-28.5914116095
 10
269.7560720405
 20
-28.1556801133
 10
269.4579818443
 20
-27.6828837382
 10
269.3066374853
 20
-27.1873881629
 10
269.3066374853
 20
-26.6842487697
 10
269.4579818443
 20
-26.1887531943
 10
269.7560720405
 20
-25.7159568193
 10
270.1918507543
 20
-25.2802253231
 10
270.7520770698
 20
-24.8947981867
 10
271.419728794
 20
-24.5713864188
 10
272.174519667
 20
-24.3198167222
 10
272.9935157502
 20
-24.1477329148
 10
273.851832262
 20
-24.060363676
 10
274.7233896895
 20
-24.060363676
 10
275.5817062012
 20
-24.1477329148
 10
276.4007022844
 20
-24.3198167222
 10
277.1554931575
 20
-24.5713864188
 10
277.8231448817
 20
-24.8947981867
  0
ARC
  5
106
330
1F
100
AcDbEntity
  8
0
  6
Continuous
 62
     7
370
    25
100
AcDbCircle
 10
335.5672678423
 20
-7.8629828422
 30
0.0
 40
21.84010227441498
100
AcDbArc
 50
83.6091645732
 51
116.1036415969
  0
LWPOLYLINE
  5
107
330
1F
100
AcDbEntity
  8
0
  6
Continuous
 62
     7
370
    25
100
AcDbPolyline
 90
       48
 70
   128
 43
0.0
 10
351.9982890944
 20
9.3202757037
 10
353.4835704686
 20
8.494621566
 10
355.51424529
 20
7.2629149679
 10
357.5397073982
 20
5.91552419
 10
359.5547574611
 20
4.4559079651
 10
361.5542228741
 20
2.8878131072
 10
363.5329710381
 20
1.2152648931
 10
365.485922535
 20
-0.5574432697
 10
367.4080641662
 20
-2.4257608649
 10
369.2944618218
 20
-4.3848919479
 10
371.1402731461
 20
-6.4298074575
 10
372.9407599679
 20
-8.5552581248
 10
374.6913004632
 20
-10.7557879484
 10
376.3874010199
 20
-13.0257481998
 10
378.024707772
 20
-15.3593119237
 10
379.5990177766
 20
-17.7504888953
 10
381.1062898025
 20
-20.1931409978
 10
382.5426547041
 20
-22.6809979782
 10
383.9044253531
 20
-25.2076735434
 10
385.1881061041
 20
-27.7666817533
 10
386.3904017667
 20
-30.3514536706
 10
387.5082260653
 20
-32.9553542229
 10
388.5387095611
 20
-35.5716992348
 10
389.4792070175
 20
-38.1937725861
 10
390.3273041912
 20
-40.8148434523
 10
391.0808240288
 20
-43.4281835819
 10
391.7378322557
 20
-46.0270845683
 10
392.2966423413
 20
-48.60487507
 10
392.7558198281
 20
-51.1549379358
 10
393.114186014
 20
-53.6707271907
 10
393.3708209781
 20
-56.14578484
 10
393.5250659423
 20
-58.5737574461
 10
393.5765249619
 20
-60.9484124381
 10
393.5250659423
 20
-63.2636541107
 10
393.3708209781
 20
-65.5135392718
 10
393.114186014
 20
-67.6922924985
 10
392.7558198281
 20
-69.7943209624
 10
392.2966423413
 20
-71.8142287866
 10
391.7378322557
 20
-73.7468308967
 10
391.0808240288
 20
-75.5871663308
 10
390.3273041912
 20
-77.3305109743
 10
389.4792070175
 20
-78.9723896864
 10
388.5387095611
 20
-80.5085877881
 10
387.5082260653
 20
-81.9351618808
 10
386.3904017667
 20
-83.2484499693
 10
385.1881061041
 20
-84.445080862
 10
383.9044253531
 20
-85.5219828244
 10
382.6298101665
 20
-86.4204922976
  0
SPLINE
  5
108
330
1F
100
AcDbEntity
  8
0
  6
Continuous
 62
     7
370
    25
100
AcDbSpline
210
0.0
220
0.0
230
1.0
 70
     8
 71
     3
 72
    17
 73
    13
 74
     0
 42
0.00000001
 43
0.00000001
 40
0.0
 40
0.0
 40
0.0
 40
0.0
 40
0.1065776147587778
 40
0.2131513952679066
 40
0.3197655148062986
 40
0.4263751252363805
 40
0.5322467417245498
 40
0.6381191987303129
 40
0.7435207139231865
 40
0.8489270587185282
 40
0.9550011598917089
 40
1.0
 40
1.0
 40
1.0
 40
1.0
 10
345.0745795450835
 20
-0.1610563977784071
 30
0.0
 10
344.6817875231506
 20
-0.1268214345741467
 30
0.0
 10
343.8962176104198
 20
-0.0583527398069286
 30
0.0
 10
342.7466664345685
 20
0.1763269311309199
 30
0.0
 10
341.6611056245675
 20
0.4977605100735458
 30
0.0
 10
340.6696042963964
 20
0.9001143298748917
 30
0.0
 10
339.8045734165954
 20
1.369163626695986
 30
0.0
 10
339.0862655385179
 20
1.888684140542225
 30
0.0
 10
338.534739271482
 20
2.446994622017661
 30
0.0
 10
338.1709091266171
 20
3.03086363491372
 30
0.0
 10
337.9984045258822
 20
3.515039498995419
 30
0.0
 10
338.0170776745145
 20
3.79943280941334
 30
0.0
 10
338.022639689939
 20
3.884142678664652
 30
0.0
  0
SPLINE
  5
109
330
1F
100
AcDbEntity
  8
0
  6
Continuous
 62
     7
370
    25
100
AcDbSpline
210
0.0
220
0.0
230
1.0
 70
     8
 71
     3
 72
    16
 73
    12
 74
     0
 42
0.00000001
 43
0.00000001
 40
0.0
 40
0.0
 40
0.0
 40
0.0
 40
0.0996782864540186
 40
0.2078181872853713
 40
0.315794672863397
 40
0.4237693022516066
 40
0.5312053096540001
 40
0.6386436847117593
 40
0.7460921705986846
 40
0.8535445133170895
 40
0.9999999999999999
 40
0.9999999999999999
 40
0.9999999999999999
 40
0.9999999999999999
 10
351.9910554394716
 20
3.636841243916909
 30
0.0
 10
351.9772879145711
 20
3.416511063289808
 30
0.0
 10
351.9485841499902
 20
2.957147039578327
 30
0.0
 10
351.6627681460107
 20
2.284749855039604
 30
0.0
 10
351.1936363332858
 20
1.646013464830016
 30
0.0
 10
350.5490257426445
 20
1.078838827114632
 30
0.0
 10
349.7472343547186
 20
0.6047144942753282
 30
0.0
 10
348.8166104398293
 20
0.2313314064793862
 30
0.0
 10
347.7777231456081
 20
-0.0250698206121155
 30
0.0
 10
346.5293626628574
 20
-0.1948327658750429
 30
0.0
 10
345.6067486049652
 20
-0.1734120113654827
 30
0.0
 10
345.0745795450835
 20
-0.1610563977784071
 30
0.0
  0
LWPOLYLINE
  5
10A
330
1F
100
AcDbEntity
  8
0
  6
Continuous
 62
     7
370
    25
100
AcDbPolyline
 90
       44
 70
   128
 43
0.0
 10
340.0485416261
 20
11.0271587335
 10
339.3806002516
 20
11.4736542066
 10
338.8323901616
 20
11.9715345291
 10
338.4155955025
 20
12.5101882464
 10
338.1390995287
 20
13.0781348896
 10
338.008795272
 20
13.6632696621
 10
338.0274599412
 20
14.253121432
 10
338.1946957315
 20
14.835118533
 10
338.5069383022
 20
15.3968567073
 10
338.9575327451
 20
15.926363481
 10
339.5368754219
 20
16.4123533365
 10
340.2326186493
 20
16.8444682438
 10
341.0299338684
 20
17.2134984238
 10
341.9118276894
 20
17.511578639
 10
342.8595040767
 20
17.7323558271
 10
343.8527649534
 20
17.8711245055
 10
344.8704406883
 20
17.924927061
 10
345.8908412901
 20
17.8926167853
 10
346.8922186914
 20
17.7748823159
 10
347.8532302715
 20
17.5742329587
 10
348.7533937371
 20
17.2949452064
 10
349.5735236666
 20
16.9429715924
 10
350.2961404144
 20
16.5258138233
 10
350.9058426593
 20
16.0523628927
 10
351.3896356563
 20
15.5327095852
 10
351.7372081977
 20
14.9779294088
 10
351.9411523782
 20
14.3998465398
 10
351.9971214817
 20
13.810781811
 10
351.9039226238
 20
13.2232901143
 10
351.6635421765
 20
12.6498928153
 10
351.2811034316
 20
12.1028108819
 10
350.764757407
 20
11.5937044157
 10
350.1255091218
 20
11.1334241371
 10
349.3769830433
 20
10.7317801211
 10
348.5351327054
 20
10.3973327127
 10
347.6179006864
 20
10.1372100777
 10
346.6448361943
 20
9.9569562784
 10
345.6366784095
 20
9.8604131117
 10
344.6149144648
 20
9.8496382275
 10
343.6013214847
 20
9.9248612737
 10
342.6175024438
 20
10.0844790018
 10
341.684425737
 20
10.325089437
 10
340.8219782743
 20
10.6415643856
 10
340.0485416261
 20
11.0271587335
  0
LWPOLYLINE
  5
10B
330
1F
100
AcDbEntity
  8
0
  6
Continuous
 62
     7
370
    25
100
AcDbPolyline
 90
       37
 70
   128
 43
0.0
 10
341.4627551884
 20
11.8435668453
 10
340.9025288729
 20
12.2289939816
 10
340.4667501592
 20
12.6647254778
 10
340.1686599629
 20
13.1375218529
 10
340.0173156039
 20
13.6330174282
 10
340.0173156039
 20
14.1361568215
 10
340.1686599629
 20
14.6316523968
 10
340.4667501592
 20
15.1044487719
 10
340.9025288729
 20
15.5401802681
 10
341.4627551884
 20
15.9256074044
 10
342.1304069126
 20
16.2490191723
 10
342.8851977857
 20
16.500588869
 10
343.7041938689
 20
16.6726726764
 10
344.5625103806
 20
16.7600419151
 10
345.4340678081
 20
16.7600419151
 10
346.2923843199
 20
16.6726726764
 10
347.1113804031
 20
16.500588869
 10
347.8661712761
 20
16.2490191723
 10
348.5338230003
 20
15.9256074044
 10
349.0940493158
 20
15.5401802681
 10
349.5298280296
 20
15.1044487719
 10
349.8279182258
 20
14.6316523968
 10
349.9792625848
 20
14.1361568215
 10
349.9792625848
 20
13.6330174282
 10
349.8279182258
 20
13.1375218529
 10
349.5298280296
 20
12.6647254778
 10
349.0940493158
 20
12.2289939816
 10
348.5338230003
 20
11.8435668453
 10
347.8661712761
 20
11.5201550774
 10
347.1113804031
 20
11.2685853807
 10
346.2923843199
 20
11.0965015733
 10
345.4340678081
 20
11.0091323346
 10
344.5625103806
 20
11.0091323346
 10
343.7041938689
 20
11.0965015733
 10
342.8851977857
 20
11.2685853807
 10
342.1304069126
 20
11.5201550774
 10
341.4627551884
 20
11.8435668453
  0
LWPOLYLINE
  5
10C
330
1F
100
AcDbEntity
  8
0
  6
Continuous
 62
     1
370
    25
100
AcDbPolyline
 90
       65
 70
   128
 43
0.0
 10
271.9564792798
 20
-18.243414048
 10
272.5030178898
 20
-17.9396378644
 10
274.0153762036
 20
-17.2135298403
 10
275.5954051971
 20
-16.6162545533
 10
277.2391135801
 20
-16.1493207725
 10
278.9423492026
 20
-15.8139080132
 10
280.7008095434
 20
-15.6108635572
 10
282.5100525793
 20
-15.5407003123
 10
284.3655080052
 20
-15.603595517
 10
286.2624887798
 20
-15.7993902926
 10
288.1962029649
 20
-16.1275900444
 10
290.1617658307
 20
-16.5873657114
 10
292.1542121948
 20
-17.1775558604
 10
294.1685089648
 20
-17.8966696198
 10
296.1995678522
 20
-18.7428904459
 10
298.242258226
 20
-19.7140807114
 10
300.291420073
 20
-20.8077871054
 10
302.3418770326
 20
-22.0212468307
 10
304.3884494725
 20
-23.3513945826
 10
306.4259675732
 20
-24.7948702925
 10
308.449284387
 20
-26.3480276155
 10
310.4532888401
 20
-28.0069431414
 10
312.4329186434
 20
-29.7674263056
 10
314.3831730801
 20
-31.6250299748
 10
316.2991256383
 20
-33.575061681
 10
318.1759364555
 20
-35.6125954748
 10
320.0088645447
 20
-37.732484369
 10
321.7932797705
 20
-39.9293733403
 10
323.5246745452
 20
-42.1977128565
 10
325.1986752153
 20
-44.5317728951
 10
326.8110531098
 20
-46.9256574179
 10
328.3577352222
 20
-49.3733192647
 10
329.8348144993
 20
-51.8685754295
 10
331.2385597107
 20
-54.4051226785
 10
332.565424874
 20
-56.9765534732
 10
333.8120582128
 20
-59.5763721564
 10
334.975310623
 20
-62.1980113602
 10
336.0522436281
 20
-64.8348485967
 10
337.0401368019
 20
-67.4802229861
 10
337.9364946404
 20
-70.1274520831
 10
338.739052866
 20
-72.7698487572
 10
339.4457841469
 20
-75.4007380852
 10
340.0549032187
 20
-78.0134742122
 10
340.5648713935
 20
-80.6014571401
 10
340.9744004477
 20
-83.1581493993
 10
341.2824558752
 20
-85.6770925633
 10
341.4882595012
 20
-88.1519235632
 10
341.5912914481
 20
-90.5763907609
 10
341.5912914481
 20
-92.944369742
 10
341.4882595012
 20
-95.249878786
 10
341.2824558752
 20
-97.4870939769
 10
340.9744004477
 20
-99.6503639151
 10
340.5648713935
 20
-101.734223993
 10
340.0549032187
 20
-103.733410199
 10
339.4457841469
 20
-105.6428724154
 10
338.739052866
 20
-107.4577871749
 10
337.9364946404
 20
-109.1735698453
 10
337.0401368019
 20
-110.7858862107
 10
336.0522436281
 20
-112.2906634199
 10
334.975310623
 20
-113.6841002752
 10
333.8120582128
 20
-114.9626768342
 10
332.565424874
 20
-116.1231633014
 10
331.2385597107
 20
-117.1626281873
 10
329.8348144993
 20
-118.0784457135
 10
329.6518833895
 20
-118.1853989418
  0
LWPOLYLINE
  5
10D
330
1F
100
AcDbEntity
  8
0
  6
Continuous
 62
     1
370
    25
100
AcDbPolyline
 90
       65
 70
   128
 43
0.0
 10
289.6341293633
 20
-8.0383238761
 10
290.1806874195
 20
-7.7345364666
 10
291.6930457332
 20
-7.0084284426
 10
293.2730747268
 20
-6.4111531555
 10
294.9167831098
 20
-5.9442193747
 10
296.6200187322
 20
-5.6088066154
 10
298.3784790731
 20
-5.4057621594
 10
300.187722109
 20
-5.3355989145
 10
302.0431775349
 20
-5.3984941192
 10
303.9401583094
 20
-5.5942888948
 10
305.8738724945
 20
-5.9224886466
 10
307.8394353603
 20
-6.3822643136
 10
309.8318817244
 20
-6.9724544626
 10
311.8461784944
 20
-7.6915682221
 10
313.8772373818
 20
-8.5377890481
 10
315.9199277556
 20
-9.5089793136
 10
317.9690896027
 20
-10.6026857077
 10
320.0195465623
 20
-11.8161454329
 10
322.0661190022
 20
-13.1462931848
 10
324.1036371028
 20
-14.5897688947
 10
326.1269539167
 20
-16.1429262177
 10
328.1309583698
 20
-17.8018417436
 10
330.1105881731
 20
-19.5623249078
 10
332.0608426098
 20
-21.419928577
 10
333.9767951679
 20
-23.3699602832
 10
335.8536059851
 20
-25.407494077
 10
337.6865340744
 20
-27.5273829712
 10
339.4709493002
 20
-29.7242719425
 10
341.2023440749
 20
-31.9926114587
 10
342.8763447449
 20
-34.3266714973
 10
344.4887226394
 20
-36.7205560201
 10
346.0354047519
 20
-39.168217867
 10
347.512484029
 20
-41.6634740317
 10
348.9162292403
 20
-44.2000212807
 10
350.2430944037
 20
-46.7714520755
 10
351.4897277425
 20
-49.3712707586
 10
352.6529801527
 20
-51.9929099625
 10
353.7299131578
 20
-54.6297471989
 10
354.7178063316
 20
-57.2751215883
 10
355.6141641701
 20
-59.9223506853
 10
356.4167223957
 20
-62.5647473594
 10
357.1234536766
 20
-65.1956366874
 10
357.7325727483
 20
-67.8083728144
 10
358.2425409232
 20
-70.3963557423
 10
358.6520699773
 20
-72.9530480015
 10
358.9601254048
 20
-75.4719911656
 10
359.1659290309
 20
-77.9468221654
 10
359.2689609778
 20
-80.3712893631
 10
359.2689609778
 20
-82.7392683442
 10
359.1659290309
 20
-85.0447773882
 10
358.9601254048
 20
-87.2819925791
 10
358.6520699773
 20
-89.4452625173
 10
358.2425409232
 20
-91.5291225952
 10
357.7325727483
 20
-93.5283088012
 10
357.1234536766
 20
-95.4377710177
 10
356.4167223957
 20
-97.2526857772
 10
355.6141641701
 20
-98.9684684476
 10
354.7178063316
 20
-100.5807848129
 10
353.7299131578
 20
-102.0855620222
 10
352.6529801527
 20
-103.4789988775
 10
351.4897277425
 20
-104.7575754364
 10
350.2430944037
 20
-105.9180619036
 10
348.9162292403
 20
-106.9575267895
 10
347.512484029
 20
-107.8733443157
 10
347.3294402364
 20
-107.9803625949
  0
ENDSEC
  0
SECTION
  2
OBJECTS
  0
DICTIONARY
  5
C
330
0
100
AcDbDictionary
281
     1
  3
ACAD_GROUP
350
D
  3
ACAD_LAYOUT
350
1A
  3
ACAD_MLINESTYLE
350
17
  3
ACAD_PLOTSETTINGS
350
19
  3
ACAD_PLOTSTYLENAME
350
E
  3
ACAD_SCALELIST
350
47
  3
DWGPROPS
350
10E
  0
DICTIONARY
  5
D
102
{ACAD_REACTORS
330
C
102
}
330
C
100
AcDbDictionary
281
     1
  0
DICTIONARY
  5
1A
102
{ACAD_REACTORS
330
C
102
}
330
C
100
AcDbDictionary
281
     1
  3
Layout1
350
1E
  3
Layout2
350
26
  3
Model
350
22
  0
DICTIONARY
  5
17
102
{ACAD_REACTORS
330
C
102
}
330
C
100
AcDbDictionary
281
     1
  3
Standard
350
18
  0
DICTIONARY
  5
19
102
{ACAD_REACTORS
330
C
102
}
330
C
100
AcDbDictionary
281
     1
  0
ACDBDICTIONARYWDFLT
  5
E
102
{ACAD_REACTORS
330
C
102
}
330
C
100
AcDbDictionary
281
     1
  3
Normal
350
F
100
AcDbDictionaryWithDefault
340
F
  0
DICTIONARY
  5
47
102
{ACAD_REACTORS
330
C
102
}
330
C
100
AcDbDictionary
281
     1
  3
A0
350
48
  3
A1
350
49
  3
A2
350
4A
  3
A3
350
4B
  3
A4
350
4C
  3
A5
350
4D
  3
A6
350
4E
  3
A7
350
4F
  3
A8
350
50
  3
A9
350
51
  3
B0
350
52
  3
B1
350
53
  3
B2
350
54
  3
B3
350
55
  3
B4
350
56
  3
B5
350
57
  3
B6
350
58
  3
B7
350
59
  3
B8
350
5A
  3
B9
350
5B
  3
C0
350
5C
  3
C1
350
5D
  3
C2
350
5E
  3
C3
350
5F
  3
C4
350
60
  3
C5
350
61
  3
C6
350
62
  3
C7
350
63
  3
C8
350
64
  3
C9
350
65
  3
D0
350
66
  3
D1
350
67
  3
D2
350
68
  0
XRECORD
  5
10E
102
{ACAD_REACTORS
330
C
102
}
330
C
100
AcDbXrecord
280
     1
  1
DWGPROPS COOKIE
  2

  3

  4

  6

  7

  8
b.kav
  9

300
=
301
=
302
=
303
=
304
=
305
=
306
=
307
=
308
=
309
=
 40
0.0
 41
2459935.585169873
 42
2459935.585170058
  1

 90
        0
  0
LAYOUT
  5
1E
102
{ACAD_REACTORS
330
1A
102
}
330
1A
100
AcDbPlotSettings
  1

  2
none_device
  4

  6

 40
0.0
 41
0.0
 42
0.0
 43
0.0
 44
0.0
 45
0.0
 46
0.0
 47
0.0
 48
0.0
 49
0.0
140
0.0
141
0.0
142
1.0
143
1.0
 70
   688
 72
     1
 73
     0
 74
     5
  7

 75
    16
147
1.0
148
0.0
149
0.0
100
AcDbLayout
  1
Layout1
 70
     1
 71
     1
 10
0.0
 20
0.0
 11
420.0
 21
297.0
 12
0.0
 22
0.0
 32
0.0
 14
1.0000000000E+20
 24
1.0000000000E+20
 34
1.0000000000E+20
 15
-1.0000000000E+20
 25
-1.0000000000E+20
 35
-1.0000000000E+20
146
0.0
 13
0.0
 23
0.0
 33
0.0
 16
1.0
 26
0.0
 36
0.0
 17
0.0
 27
1.0
 37
0.0
 76
     0
330
1B
  0
LAYOUT
  5
26
102
{ACAD_REACTORS
330
1A
102
}
330
1A
100
AcDbPlotSettings
  1

  2
none_device
  4

  6

 40
0.0
 41
0.0
 42
0.0
 43
0.0
 44
0.0
 45
0.0
 46
0.0
 47
0.0
 48
0.0
 49
0.0
140
0.0
141
0.0
142
1.0
143
1.0
 70
   688
 72
     1
 73
     0
 74
     5
  7

 75
    16
147
1.0
148
0.0
149
0.0
100
AcDbLayout
  1
Layout2
 70
     1
 71
     2
 10
0.0
 20
0.0
 11
0.0
 21
0.0
 12
0.0
 22
0.0
 32
0.0
 14
0.0
 24
0.0
 34
0.0
 15
0.0
 25
0.0
 35
0.0
146
0.0
 13
0.0
 23
0.0
 33
0.0
 16
1.0
 26
0.0
 36
0.0
 17
0.0
 27
1.0
 37
0.0
 76
     0
330
23
  0
LAYOUT
  5
22
102
{ACAD_REACTORS
330
1A
102
}
330
1A
100
AcDbPlotSettings
  1

  2
none_device
  4
Letter_(8.50_x_11.00_Inches)
  6

 40
6.35
 41
6.35
 42
6.35000508
 43
6.35000508
 44
215.9
 45
279.4
 46
0.0
 47
0.0
 48
0.0
 49
0.0
140
0.0
141
0.0
142
1.0
143
1.0
 70
  1712
 72
     1
 73
     0
 74
     0
  7

 75
     0
147
1.0
148
0.0
149
0.0
100
AcDbLayout
  1
Model
 70
     1
 71
     0
 10
0.0
 20
0.0
 11
279.4
 21
215.9
 12
0.0
 22
0.0
 32
0.0
 14
0.0
 24
0.0
 34
0.0
 15
279.4
 25
215.9
 35
0.0
146
0.0
 13
0.0
 23
0.0
 33
0.0
 16
1.0
 26
0.0
 36
0.0
 17
0.0
 27
1.0
 37
0.0
 76
     0
330
1F
331
29
  0
MLINESTYLE
  5
18
102
{ACAD_REACTORS
330
17
102
}
330
17
100
AcDbMlineStyle
  2
Standard
 70
     0
  3

 62
   256
 51
90.0
 52
90.0
 71
     2
 49
0.5
 62
   256
  6
BYLAYER
 49
-0.5
 62
   256
  6
BYLAYER
  0
ACDBPLACEHOLDER
  5
F
102
{ACAD_REACTORS
330
E
102
}
330
E
  0
SCALE
  5
48
102
{ACAD_REACTORS
330
47
102
}
330
47
100
AcDbScale
 70
     0
300
1:1
140
1.0
141
1.0
290
     1
  0
SCALE
  5
49
102
{ACAD_REACTORS
330
47
102
}
330
47
100
AcDbScale
 70
     0
300
1:2
140
1.0
141
2.0
290
     0
  0
SCALE
  5
4A
102
{ACAD_REACTORS
330
47
102
}
330
47
100
AcDbScale
 70
     0
300
1:4
140
1.0
141
4.0
290
     0
  0
SCALE
  5
4B
102
{ACAD_REACTORS
330
47
102
}
330
47
100
AcDbScale
 70
     0
300
1:5
140
1.0
141
5.0
290
     0
  0
SCALE
  5
4C
102
{ACAD_REACTORS
330
47
102
}
330
47
100
AcDbScale
 70
     0
300
1:8
140
1.0
141
8.0
290
     0
  0
SCALE
  5
4D
102
{ACAD_REACTORS
330
47
102
}
330
47
100
AcDbScale
 70
     0
300
1:10
140
1.0
141
10.0
290
     0
  0
SCALE
  5
4E
102
{ACAD_REACTORS
330
47
102
}
330
47
100
AcDbScale
 70
     0
300
1:16
140
1.0
141
16.0
290
     0
  0
SCALE
  5
4F
102
{ACAD_REACTORS
330
47
102
}
330
47
100
AcDbScale
 70
     0
300
1:20
140
1.0
141
20.0
290
     0
  0
SCALE
  5
50
102
{ACAD_REACTORS
330
47
102
}
330
47
100
AcDbScale
 70
     0
300
1:30
140
1.0
141
30.0
290
     0
  0
SCALE
  5
51
102
{ACAD_REACTORS
330
47
102
}
330
47
100
AcDbScale
 70
     0
300
1:40
140
1.0
141
40.0
290
     0
  0
SCALE
  5
52
102
{ACAD_REACTORS
330
47
102
}
330
47
100
AcDbScale
 70
     0
300
1:50
140
1.0
141
50.0
290
     0
  0
SCALE
  5
53
102
{ACAD_REACTORS
330
47
102
}
330
47
100
AcDbScale
 70
     0
300
1:100
140
1.0
141
100.0
290
     0
  0
SCALE
  5
54
102
{ACAD_REACTORS
330
47
102
}
330
47
100
AcDbScale
 70
     0
300
2:1
140
2.0
141
1.0
290
     0
  0
SCALE
  5
55
102
{ACAD_REACTORS
330
47
102
}
330
47
100
AcDbScale
 70
     0
300
4:1
140
4.0
141
1.0
290
     0
  0
SCALE
  5
56
102
{ACAD_REACTORS
330
47
102
}
330
47
100
AcDbScale
 70
     0
300
8:1
140
8.0
141
1.0
290
     0
  0
SCALE
  5
57
102
{ACAD_REACTORS
330
47
102
}
330
47
100
AcDbScale
 70
     0
300
10:1
140
10.0
141
1.0
290
     0
  0
SCALE
  5
58
102
{ACAD_REACTORS
330
47
102
}
330
47
100
AcDbScale
 70
     0
300
100:1
140
100.0
141
1.0
290
     0
  0
SCALE
  5
59
102
{ACAD_REACTORS
330
47
102
}
330
47
100
AcDbScale
 70
     0
300
1/128" = 1'-0"
140
0.0078125
141
12.0
290
     0
  0
SCALE
  5
5A
102
{ACAD_REACTORS
330
47
102
}
330
47
100
AcDbScale
 70
     0
300
1/64" = 1'-0"
140
0.015625
141
12.0
290
     0
  0
SCALE
  5
5B
102
{ACAD_REACTORS
330
47
102
}
330
47
100
AcDbScale
 70
     0
300
1/32" = 1'-0"
140
0.03125
141
12.0
290
     0
  0
SCALE
  5
5C
102
{ACAD_REACTORS
330
47
102
}
330
47
100
AcDbScale
 70
     0
300
1/16" = 1'-0"
140
0.0625
141
12.0
290
     0
  0
SCALE
  5
5D
102
{ACAD_REACTORS
330
47
102
}
330
47
100
AcDbScale
 70
     0
300
3/32" = 1'-0"
140
0.09375
141
12.0
290
     0
  0
SCALE
  5
5E
102
{ACAD_REACTORS
330
47
102
}
330
47
100
AcDbScale
 70
     0
300
1/8" = 1'-0"
140
0.125
141
12.0
290
     0
  0
SCALE
  5
5F
102
{ACAD_REACTORS
330
47
102
}
330
47
100
AcDbScale
 70
     0
300
3/16" = 1'-0"
140
0.1875
141
12.0
290
     0
  0
SCALE
  5
60
102
{ACAD_REACTORS
330
47
102
}
330
47
100
AcDbScale
 70
     0
300
1/4" = 1'-0"
140
0.25
141
12.0
290
     0
  0
SCALE
  5
61
102
{ACAD_REACTORS
330
47
102
}
330
47
100
AcDbScale
 70
     0
300
3/8" = 1'-0"
140
0.375
141
12.0
290
     0
  0
SCALE
  5
62
102
{ACAD_REACTORS
330
47
102
}
330
47
100
AcDbScale
 70
     0
300
1/2" = 1'-0"
140
0.5
141
12.0
290
     0
  0
SCALE
  5
63
102
{ACAD_REACTORS
330
47
102
}
330
47
100
AcDbScale
 70
     0
300
3/4" = 1'-0"
140
0.75
141
12.0
290
     0
  0
SCALE
  5
64
102
{ACAD_REACTORS
330
47
102
}
330
47
100
AcDbScale
 70
     0
300
1" = 1'-0"
140
1.0
141
12.0
290
     0
  0
SCALE
  5
65
102
{ACAD_REACTORS
330
47
102
}
330
47
100
AcDbScale
 70
     0
300
1-1/2" = 1'-0"
140
1.5
141
12.0
290
     0
  0
SCALE
  5
66
102
{ACAD_REACTORS
330
47
102
}
330
47
100
AcDbScale
 70
     0
300
3" = 1'-0"
140
3.0
141
12.0
290
     0
  0
SCALE
  5
67
102
{ACAD_REACTORS
330
47
102
}
330
47
100
AcDbScale
 70
     0
300
6" = 1'-0"
140
6.0
141
12.0
290
     0
  0
SCALE
  5
68
102
{ACAD_REACTORS
330
47
102
}
330
47
100
AcDbScale
 70
     0
300
1'-0" = 1'-0"
140
12.0
141
12.0
290
     0
  0
ENDSEC
  0
EOF
